------------------------------------------------------------------
ABRAXAS ANNIHILATION - Integrity
------------------------------------------------------------------

verse 1
E|----------------------------------------------------------------
B|----------------------------------------------------------------
G|----------------------------------------------------------------
D|-----------3-3-3----5-5-5---------------------------------------
A|--3-3-3-2--1-1-1-2--3-3-3-2--3-3-3-2--2-2-2-2-2-2-2-2-----------
E|--1-1-1-0--------0--------0--1-1-1-0--0-0-0-0-0-0-0-0-----------

chorus verse 2
E|-------------------------|--------------------------------------
B|-------------------------|--------------------------------------
G|-------------------------|--------------------------------------
D|-------7/9--10-9---------|----------------10-9--------------10-9
A|--2----5/7-- 8-7--5-8-5--|--2--------------8-7---------------8-7
E|--0---------------3-6-3--|--0-0-0-0-0-0-0-----0-0-0-0-0-0-0-----


E|----------------------------------------------------------------
B|----------------------------------------------------------------
G|----------------------------------------------------------------
D|---------------10-9---------------------------------------------
A|----------------8-7-------3-3-3-3-------------------------------
E|--0-0-0-0-0-0-0-----0-0-0-1-1-1-1-------------------------------




Ваше мнение



Капча