Band: Inner Circle
Song: Summer Jammin
Genre: Reggae
Tabbed by Daniel Schaub @ www.schaubi.de.vu

Intro ending:
E|----10>>>

Chorus: x3
H |------------|----------|-------------|-------------|
G |-------8-12-|-----7-10-|-------10-13-|-------10-13-|
A |-10-10------|-8-8------|-11-11-------|-11-11-------|
E |------------|----------|-------------|-------------|

H |-------------|-------------------------|
G |-------------|-------------------------|
A |-10-10-10-10-|-10-10---8-8---6-6---5>>>|
E |-------------|-------------------------|

Short Chorus: x2
H |------------|----------|-------------|-------------|
G |-------8-12-|-----7-10-|-------10-13-|-------10-13-|
A |-10-10------|-8-8------|-11-11-------|-11-11-------|
E |------------|----------|-------------|-------------|

Verse -> (3213311333213311)

3 2 1
H |-------------|-------------|-------------|
G |-------12-15-|-------10-13-|-------------|
A |-13-13-------|-11-11-------|-------10-13-|
E |-------------|-------------|-11-11-------|

-> Intro
-> Chorus
-> Verse
-> short Chorus
-> break !without bass! (the peopleґs jamming…)
-> Chorus
-> break !without bass! (sometimes…)
-> Verse
-> short Chorus
-> break !without bass! (the peopleґs jamming…)
-> Chorus
-> break !without bass!
-> Verse x1(3213)
-> short Chorus
-> break !without bass! (the peopleґs jamming…)
-> Chorus x3




Ваше мнение



Капча