so many people have emailed me for this song so i'll just submit it on here.
[email protected]
if ya need more inme tabs or any other band. even my own haha then email me
Intro
Part 1
e[-------------------------------------------------------------------]
b[-------------------------------------------------------------------]
g[-------------------------------------------------------------------] x2
d[---------------------------------5-0-------------------------------]
a[-----3---3-0~----0---0------3---3----------------------------------]
d[-3-3---3------0---0----3-3---3-------------------------------------]
Part 2
e[-------------------------------------------------------------------]
b[-------------------------------------------------------------------]
g[-------------------------------------------------------------------]
d[-----------9~-------------------7~---------------------------------]
a[-----7---7---0-0-0-0------5---5---0-0-0-0--------------------------]
d[-7-7---7--------------5-5---5--------------------------------------]

e[-------------------------------------------------------------------] x2
b[-------------------------------------------------------------------]
g[-------------------------------------------------------------------]
d[-----------5~------------------------------------------------------]
a[-----3---3----3~-2~-h0-h2/3p---------------------------------------]
d[-3-3---3-----------------------------------------------------------]
Bridge
e[--------------------------------]
b[--------------------------------]
g[--------------------------------]
d[----3---------------------------] x1
a[------3---------7---------------]
d[-3~-----------7-----------------]
Intro Continued
e[-------------------------------------------------------------------]
b[-------------------------------------------------------------------]
g[-------------------------------------------------------------------]
d[-7-7-7*-7*-7-7-7*-7*-7-7*-7-7*---5-5-------5-5-------5----5--------]
a[-7-7-------7-7-------7----7------5-5-5*-5*-5-5-5*-5*-5-5*-5-5*-----]
d[-7-7-------7-7-------7----7------5-5-------5-5-------5----5--------]
e[-------------------------------------------------------------------]
b[-------------------------------------------------------------------]
g[-------------------------------------------------------------------]
d[-3-3-------3-3-------3----3----------------------------------------]
a[-3-3-3*-3*-3-3-3*-3*-3-3*-3-3*-------------------------------------]
d[-3-3-------3-3-------3----3----------------------------------------]





Ваше мнение



Капча