Artist:InMe
Song:Neptune
Album:Overgrown eden
Email:[email protected]
Tuning:Drop D Tuning (DADGBE)
Started:August 14 2002
Ended:August 16 2002 (Updated on august 21)
Lyrics included
Now this should be correct cuz I updated it
so if u think its wrong EMAIL ME and I will fix
it. bye bye
Intro part 1
Intro part 2
Intro part 3
Intro part 4
Intro end
Riff 1
Riff 2
Riff 3
Riff 4
Riff end
Chorus part 1
Chorus part 2
Chorus part 3
Chorus end
Verse:
Interlude:1
Interlude:2
Interlude:3
Interlude:end
Outro
(Guitar 1)
(Intro part 1)Use effect! not distortion!
|---------------------------------------------|
|---------------------------------------------|
|---------------------------------------------|
|-----10\\9---9---7h9-7-0---------------------|
|---7-----------------------------------------|
|-7---------7---7-----------------------------|
(Intro part 2) _____________________________________________________
|---------------------------------------------| |(guitar 2)Played in the background with distortion!|
|---------------------------------------------| |__|---------------------------------------------|__|
|---------------------------------------------| |---------------------------------------------|
|---------------------------------------------| |-5-4-2------5-4--7--4h5-0-2------------------|
|-----(5b)p0---------(7b)---------------------| |---------------------------------------------|
|---3--------------5--------------------------| |---------------------------------------------|
|-3--------------5----------------------------| |---------------------------------------------|
| |
(Intro part 3)played a bit different from Intro part 1 |---------------------------------------------|
|---------------------------------------------| |---------------------------------------------|
|---------------------------------------------| |------------------2----5-4--7---5\\\---------|
|---------------------------------------------| |-3-2--5-2-2//5\\2----------------------------|
|-----10\\9---9---7--7h9-7-0------------------| |---------------------------------------------|
|---7-----------------------------------------| |---------------------------------------------|
|-7---------7---7-----------------------------| | (then it ends at the last Intro) |
(Intro part 4) |_____________________________________________|
|------------------------------|
|------------------------------|
|------------------------------|
|-----(5b)p0----(7b)-----------|
|---3---------5----------------|
|-3---------5------------------|
(Intro part 1)played again
|---------------------------------------------|
|---------------------------------------------|
|---------------------------------------------|
|-----10\\9---9---7h9-7-0---------------------|
|---7-----------------------------------------|
|-7---------7---7-----------------------------|
(Intro part 2)played again
|----------------------------|
|----------------------------|
|----------------------------|
|-----(5b)p0---------(7b)----|
|---3--------------5---------|
|-3--------------5-----------|
(Intro part 3)played again
|---------------------------------------------|
|---------------------------------------------|
|---------------------------------------------|
|-----10\\9---9---7--7h9-7-0------------------|
|---7-----------------------------------------|
|-7---------7---7-----------------------------|
(last Intro)
|------------------------------|
|------------------------------|
|------------------------------|
|-----(5b)p0-----(7b)----------|
|---3----------5---------------|
|-3----------5-----------------|
(Riff 1)Now turn on the distortion
|---------------------------------------------------|
|-Distortion----------------------------------------|
|---------------------------------------------------|
|-----10\\9---9---7--7h9-7-0-------(5b)p0-----(7b)--|
|---7----------------------------3----------5-------|
|-7---------7---7--------------3----------5---------|
(Riff 2)
|---------------------------------------------------|
|---------------------------------------------------|
|---------------------------------------------------|
|-----10\\9---9---7--7h9-7-0-------(5b)p0-----(7b)--|
|---7----------------------------3----------5-------|
|-7---------7---7--------------3----------5---------|
(Riff 3)
|---------------------------------------------------|
|---------------------------------------------------|
|----------------------------------(5b)-------(7b)--|
|-----10\\9---9---7--7h9-7-0------------------------|
|---7----------------------------3----------5-------|
|-7---------7---7--------------3----------5---------|
(Riff 4)
|---------------------------------------------------|
|---------------------------------------------------|
|---------------------------------------------------|
|-----10\\9---9---7--7h9-7-0-------(5b)p0-----(7b)--|
|---7----------------------------3----------5-------|
|-7---------7---7--------------3----------5---------|
(Riff end)with feedback then an another effect
|--------------------------------------------------|
|--------------------------------------------------|
|-let ring-----------------------------------------|
|-7.........feedback....--.-.-.-.-.-then-fades-away|
|-7.........feedback....--.-.-.-.-.----------------|
|-7.........feedback....--.-.-.-.-.----------------|
(Before Chorus)
|-----------------------------------------------|
|-----------------------------------------------|
|-----------------------------------------------|
|-3--3---5--5--//Slide//Strings//---------------|
|-3--3---5--5--//Slide//Strings//---------------|
|-3--3---5--5--//Slide//Strings//---------------|
(Chorus part 1)this..is..the..way......forward
|----------------------------------------------------|
|----------------------------------------------------|
|----------------------------------------------------|
|-12-12-12-12-12-12-11-11-11-11-8-8-8-8-8-8-8-8------|
|-12-12-12-12-12-12-11-11-11-11-8-8-8-8-8-8-8-8------|
|-12-12-12-12-12-12-11-11-11-11-8-8-8-8-8-8-8-8------|
(Chorus part 2)and..you..are..the..way......backward
|----------------------------------------------------------|
|----------------------------------------------------------|
|----------------------------------------------------------|
|-12-12-12-12-12-12-11-11-11-11-8-8-8-8-x-x-8-x-x-8--------|
|-12-12-12-12-12-12-11-11-11-11-8-8-8-8-x-x-7-x-x-7--------|
|-12-12-12-12-12-12-11-11-11-11-8-8-8-8-x-x-7-x-x-7--------|
(Chorus part 3)and.I..chose..the..way......forward
|----------------------------------------------------|
|----------------------------------------------------|
|----------------------------------------------------|
|-12-12-12-12-12-12-11-11-11-11-8-8-8-8-8-8-8-8------|
|-12-12-12-12-12-12-11-11-11-11-8-8-8-8-8-8-8-8------|
|-12-12-12-12-12-12-11-11-11-11-8-8-8-8-8-8-8-8------|
(Chorus end)I.left..you..all..behind..........................
|----------------------------------------------------|
|----------------------------------------------------|
|----------------------------------------------------|
|-12-12-12-12-12-12-11-11-11-11-8-8-8-8-8-8-8-8------|
|-12-12-12-12-12-12-11-11-11-11-8-8-8-8-8-8-8-8------|
|-12-12-12-12-12-12-11-11-11-11-8-8-8-8-8-8-8-8------|
Verse:
(Riff 1)(Riff 2)(Riff 3)(Riff 4)(Riff End) Played over
|---------------------------------------------------|
|---------------------------------------------------|
|---------------------------------------------------|
|-----10\\9---9---7--7h9-7-0-------(5b)p0-----(7b)--|
|---7----------------------------3----------5-------|
|-7---------7---7--------------3----------5---------|
(Riff 2)
|---------------------------------------------------|
|---------------------------------------------------|
|---------------------------------------------------|
|-----10\\9---9---7--7h9-7-0-------(5b)p0-----(7b)--|
|---7----------------------------3----------5-------|
|-7---------7---7--------------3----------5---------|
(Riff 3)
|---------------------------------------------------|
|---------------------------------------------------|
|----------------------------------(5b)-------(7b)--|
|-----10\\9---9---7--7h9-7-0------------------------|
|---7----------------------------3----------5-------|
|-7---------7---7--------------3----------5---------|
(Riff 4)
|---------------------------------------------------|
|---------------------------------------------------|
|---------------------------------------------------|
|-----10\\9---9---7--7h9-7-0-------(5b)p0-----(7b)--|
|---7----------------------------3----------5-------|
|-7---------7---7--------------3----------5---------|
(Riff End) (Guitar 2)played in backround
|--------------------------------------------------| |----------------------------|
|--------------------------------------------------| |----------------------------|
|-let ring-----------------------------------------| |----------------------------|
|-7.........feedback....--.-.-.-.-.-then-fades-away| |-7-----------------------7--|
|-7.........feedback....--.-.-.-.-.----------------| |--7-----------------------7-|
|-7.........feedback....--.-.-.-.-.----------------| |---7-----------------------7|
(Before Chorus)played again
|-----------------------------------------------|
|-----------------------------------------------|
|-----------------------------------------------|
|-3--3---5--5--//Slide//Strings//---------------|
|-3--3---5--5--//Slide//Strings//---------------|
|-3--3---5--5--//Slide//Strings//---------------|
(Chorus part 1)this..is..the..way......forward
|------------------------------------------------|
|------------------------------------------------|
|------------------------------------------------|
|-12-12-12-12-12-12-11-11-11-11-8-8-8-8-8-8-8-8--|
|-12-12-12-12-12-12-11-11-11-11-8-8-8-8-8-8-8-8--|
|-12-12-12-12-12-12-11-11-11-11-8-8-8-8-8-8-8-8--|
(Chorus part 2)and..you..are..the..way......backward
|----------------------------------------------------------|
|----------------------------------------------------------|
|----------------------------------------------------------|
|-12-12-12-12-12-12--11-11-11-11-8-8-8-8-x-x-8-x-x-8-------|
|-12-12-12-12-12-12--11-11-11-11-8-8-8-8-x-x-7-x-x-7-------|
|-12-12-12-12-12-12--11-11-11-11-8-8-8-8-x-x-7-x-x-7-------|
(Chorus part 3)and.I..chose..the..way......forward
|-------------------------------------------------|
|-------------------------------------------------|
|-------------------------------------------------|
|-12-12-12-12-12-12--11-11-11-11--8-8-8-8-8-8-8-8-|
|-12-12-12-12-12-12--11-11-11-11--8-8-8-8-8-8-8-8-|
|-12-12-12-12-12-12--11-11-11-11--8-8-8-8-8-8-8-8-|
I.left..you..all..behind
(Chorus end)The Chorus ends going into the Interlude
|-------------------------------------------------------|
|-------------------------------------------------------|
|-------------------------------------------------------|
|-12-12-12-12-12-12--11-11-11-11-8-8-8-8-8-8--8x8x8x8---|
|-12-12-12-12-12-12--11-11-11-11-8-8-8-8-8-8--8x8x8x8---|
|-12-12-12-12-12-12--11-11-11-11-8-8-8-8-8-8--8x8x8x8---|
|
put your finger above strings gently
Interlude:1 its..bad..enough.....you....could..of..said......that....its..bad..enough...........................
|-----------------------------------------------------------------------|
|-----------------------------------------------------------------------|
|-----------------------------------------------------------------------|
|-9-9-9-9--12-12-12-12-12\\11-11-11--4//5--5--5-5-5//7-7-7-7-7-7-7------|
|-9-9-9-9----------------------------4//5--5--5-5-5//7-7-7-7-7-7-7------|
|-9-9-9-9----------------------------4//5--5--5-5-5//7-7-7-7-7-7-7------|
Interlude:2
|---------------------------------------------------------------------------------------------------------------|
|---------------------------------------------------------------------------------------------------------------|
|---------------------------------------------------------------------------------------------------------------|
|-7//9-9-9-9-9-9-9-12-12-12-12-12\\11-11-11-4//5--5--5-5-x-x-7-x-x-7--7//9--9-9-9-9-9-9-12-12-12-12-12\\11-11-11|
|-7//9-9-9-9-9-9-9--------------------------4//5--5--5-5-x-x-7-x-x-7--7//9--9-9-9-9-9-9-------------------------|
|-7//9-9-9-9-9-9-9--------------------------4//5--5--5-5-x-x-7-x-x-7--7//9--9-9-9-9-9-9-------------------------|
Interlude:3
|--------------------------------------------------------------------------|
|--------------------------------------------------------------------------|
|--------------------------------------------------------------------------|
|-4//5--5--5-5-5//7--7-7-7-7-7-7-7//9-9-9-9-9-9-9-12-12-12-12-12\\11-11-11-|
|-4//5--5--5-5-5//7--7-7-7-7-7-7-7//9-9-9-9-9-9-9--------------------------|
|-4//5--5--5-5-5//7--7-7-7-7-7-7-7//9-9-9-9-9-9-9--------------------------|
(Interlude:end and Riff 1).....I..wish..that..I..could..tade..these..eyes...
|---------------------------------------------------------------------------------|
|---------------------------------------------------------------------------------|
|---------------------------------------------------------------------------------|
|-4//5--5--5-5-x-x-7-x-x-7-------10\\9---9-----7--7h9-7-0--------(5b)p0-----(7b)--|
|-4//5--5--5-5-x-x-7-x-x-7-----7-------------------------------3----------5-------|
|-4//5--5--5-5-x-x-7-x-x-7--7----------7----7----------------3----------5---------|
(Riff 2)..Because...now..I..only..despise...my..own..lies
---------------------------------------------------|
---------------------------------------------------|
---------------------------------------------------|
-----10\\9---9---7--7h9-7-0-------(5b)p0-----(7b)--|
---7----------------------------3----------5-------|
-7---------7---7--------------3----------5---------|
(Riff 3)You..se-date..me..el-evate..me..in-carcerate..me..and..you..hate...me..
|---------------------------------------------------|
|---------------------------------------------------|
|----------------------------------(5b)-------(7b)--|
|-----10\\9---9---7--7h9-7-0------------------------|
|---7----------------------------3----------5-------|
|-7---------7---7--------------3----------5---------|
Nep-tune..in...the..sea..................
(Riff end)going back into the chorus
|-----------------------------------------------------|
|-----------------------------------------------------|
|-----------------------------------------------------|
|-----10\\9---9---7--7h9-7-0--//Slide//Strings//Down//|
|---7-------------------------//Slide//Strings//Down//|
|-7---------7---7-------------//Slide//Strings//Down//|
(Chorus part 1)
|----------------------------------------------------|
|----------------------------------------------------|
|----------------------------------------------------|
|-12-12-12-12-12-12--11-11-11-11--8-8-8-8-8-8-8-8----|
|-12-12-12-12-12-12--11-11-11-11--8-8-8-8-8-8-8-8----|
|-12-12-12-12-12-12--11-11-11-11--8-8-8-8-8-8-8-8----|
(Chorus part 2)
|----------------------------------------------------------|
|----------------------------------------------------------|
|----------------------------------------------------------|
|-12-12-12-12-12-12--11-11-11-11--8-8-8-8-x-x-8-x-x-8------|
|-12-12-12-12-12-12--11-11-11-11--8-8-8-8-x-x-7-x-x-7------|
|-12-12-12-12-12-12--11-11-11-11--8-8-8-8-x-x-7-x-x-7------|
(Chorus part 3)
|----------------------------------------------------|
|----------------------------------------------------|
|----------------------------------------------------|
|-12-12-12-12-12-12--11-11-11-11--8-8-8-8-8-8-8-8----|
|-12-12-12-12-12-12--11-11-11-11--8-8-8-8-8-8-8-8----|
|-12-12-12-12-12-12--11-11-11-11--8-8-8-8-8-8-8-8----|
(Chorus end)The Chorus ends going back into the Interlude again
|----------------------------------------------------------|
|----------------------------------------------------------|
|----------------------------------------------------------|
|-12-12-12-12-12-12--11-11-11-11--8-8-8-8-x-x-8--8x8x8x8---|
|-12-12-12-12-12-12--11-11-11-11--8-8-8-8-x-x-8--8x8x8x8---|
|-12-12-12-12-12-12--11-11-11-11--8-8-8-8-x-x-8--8x8x8x8---|
Interlude:1 Guitar:2
|-----------------------------------------------------------------| |--------------------------------------------------|
|-----------------------------------------------------------------| |10-12-12-12-12-------------------------10-10-10-10|
|-----------------------------------------------------------------| |----------------11-11-11-11-12-12-12-12-----------|
|-9-9-9-9--12-12-12-12-12\\11-11-11--4//5--5--5-5-5//7-7-7-7-7-7-7| |--------------------------------------------------|
|-9-9-9-9----------------------------4//5--5--5-5-5//7-7-7-7-7-7-7| |--------------------------------------------------|
|-9-9-9-9----------------------------4//5--5--5-5-5//7-7-7-7-7-7-7| |-play-x6------------------------------------------|
Interlude:2
|---------------------------------------------------------------------------------------------------------------|
|---------------------------------------------------------------------------------------------------------------|
|---------------------------------------------------------------------------------------------------------------|
|-7//9-9-9-9-9-9-9-12-12-12-12-12\\11-11-11-4//5--5--5-5-x-x-7-x-x-7--7//9--9-9-9-9-9-9-12-12-12-12-12\\11-11-11|
|-7//9-9-9-9-9-9-9--------------------------4//5--5--5-5-x-x-7-x-x-7--7//9--9-9-9-9-9-9-------------------------|
|-7//9-9-9-9-9-9-9--------------------------4//5--5--5-5-x-x-7-x-x-7--7//9--9-9-9-9-9-9-------------------------|
Interlude:3
|--------------------------------------------------------------------------|
|--------------------------------------------------------------------------|
|--------------------------------------------------------------------------|
|-4//5--5--5-5-5//7--7-7-7-7-7-7-7//9-9-9-9-9-9-9-12-12-12-12-12\\11-11-11-|
|-4//5--5--5-5-5//7--7-7-7-7-7-7-7//9-9-9-9-9-9-9--------------------------|
|-4//5--5--5-5-5//7--7-7-7-7-7-7-7//9-9-9-9-9-9-9--------------------------|
Outro
|------------------|
|------------------|
|------------------|
|-3-3---5-5-x-5---7|
|-3-3---5-5-x-5---7|
|-3-3---5-5-x-5---7|
Well thats it email if it's not correct..bye bye
I wish I had a different star,
I wish I had a different silhouette,
You descrease me, you seclude me, aggravate me and you made me,
What I am today,
This is the way forward,
You are the way backward,
I chose the way forward,
And left you all behind,
I wish we could communicate,
Despite the fact you'd hate me anyway,
You seduce me, you abuse me, you frustrate me and amaze me,
What is wrong with me?
It's bad enough that you colud say that, its bad enough,
I wish that I could trade these eyes,
Because now I only despise my own lies,
You sedate me, elevate me, incarcerate me and you hate me,
Neptune in the sea.





Ваше мнение



Капча