[email protected], i got more inme tabs.
Chorus
E|-----------------------------------------------------------------------------------|
B|-----------------------------------------------------------------------------------|
G|----------------------------44444444-----------------------------------------------|
D|--7-7-7-7-7-7-7-7---3-3-3-3-----------5-5-5-5-5-5-5-5-5-5-5-5-10-10-10-10-9-9-9-9--|
A|--7-7-7-7-7-7-7-7---3-3-3-3-----------5-5-5-5-5-5-5-5-5-5-5-5-10-10-10-10-9-9-9-9--|
D|--7-7-7-7-7-7-7-7---3-3-3-3-----------5-5-5-5-5-5-5-5-5-5-5-5-10-10-10-10-9-9-9-9--|
Verse 1
E|--------------------------------------------------------------------------------------|
B|--------------------------------------------------------------------------------------|
G|--------------------------------------------------------------------------------------|
D|--7-7-7-7---3-3-3-3---3-3---5-5-5-5---10-10-10-10--12-12-12-12--9-9-9-9--10-10-10-10--|
A|--7-7-7-7---3-3-3-3---3-3---5-5-5-5---10-10-10-10--12-12-12-12--9-9-9-9--10-10-10-10--|
D|--7-7-7-7---3-3-3-3---3-3---5-5-5-5---10-10-10-10--12-12-12-12--9-9-9-9--10-10-10-10--|
pm . . . . . . . . . . . . . . . . . . . . . . . . . . . . . .
Pre-chorus
E|---------|
B|---------|
G|---------|
D|------0--|
A|----1----|
D|--1------|
Verse 2
E|--------------------------------------------------------------------------------------|
B|--------------------------------------------------------------------------------------|
G|--------------------------------------------------------------------------------------|
D|-7-7-7-7--3-3-3-3--3-3--5-5-5-5--5-5--10-10-10-10--12-12-12-12--9-9-9-9--10-10-10-10--|
A|-7-7-7-7--3-3-3-3--3-3--5-5-5-5--5-5--10-10-10-10--12-12-12-12--9-9-9-9--10-10-10-10--|
D|-7-7-7-7--3-3-3-3--3-3--5-5-5-5--5-5--10-10-10-10--12-12-12-12--9-9-9-9--10-10-10-10--|
pm . . . . . . . . . . . . . . . . . . . . . . . . . . . . . . . .
Interlude
E|--------------------------------|
B|--------------------------------|
G|--------------------------------|
D|--6-6--3-3--4-4--1-1--1-1--1-1--|
A|--6-6--3-3--4-4--1-1--1-1--1-1--|
D|--4-4--3-3--4-4--1-1--1-1--1-1--|
. . . .
Song Order
Chorus x 2
Verse 1 x 2
Pre-Chorus
Chorus x 2
Verse 2 x 2
Pre-Chorus x 2
Chorus x 4
Interlude x 4
Pre-Chorus x 2
Chorus x 4





Ваше мнение



Капча