This song might not be perfect. sorry if so. But its a good one.
[email protected]
need any more tabs from any band contact me.
Intro
E|-----|
B|-----|
G|-----|
D|--2--|
A|--2--|
D|--2--|
Bass line before guitar comes in
E|-------------------------|
B|-------------------------|
G|-------------------------|
D|-------------------------|
A|-------------------------|
D|--7-7-10-8-8-7-7-7-8-10--|
Main guitar riff
E|-------------------------|
B|-------------------------|
G|-------------------------|
D|--7-7-10-8-8-7-7-7-8-10--|
A|--7-7-10-8-8-7-7-7-8-10--|
D|--7-7-10-8-8-7-7-7-8-10--|
2nd part of intro/chorus riff
E|--------------------------------------------------------------------------------|
B|--------------------------------------------------------------------------------|
G|--7-x-x-7-7-7-7-----------------------------------------------------------------|
D|--7-x-x-7-7-7-7---8-x-x-8-8-8-8---7-7-10-8-8-7-7-7-8-10--7-7-10-8-8-7-7-7-8-10--|
A|--5-x-x-5-5-5-5---8-x-x-8-8-8-8---7-7-10-8-8-7-7-7-8-10--7-7-10-8-8-7-7-7-8-10--|
D|--0-x-x-0-0-0-0---8-x-x-8-8-8-8---7-7-10-8-8-7-7-7-8-10--7-7-10-8-8-7-7-7-8-10--|
2nd Verse plays these two notes with a flanger effect
E|----------------------------------|
B|----------------------------------|
G|--9---------8-9-------------------|
D|----------------------------------|
A|----------------------------------|
E|----------------------------------|
Interlude (After 2nd chorus)
E|-----------------------------------|
B|-----------------------------------|
G|-----------------------------------|
D|--5--7---5--7---5--7---5--7-8-8-8--|
A|--5--7---5--7---5--7---5--7-8-8-8--|
D|--5--7---5--7---5--7---5--7-8-8-8--|
pm . . . . . . . . . . .
E|------------------------------------|
B|------------------------------------|
G|-------7^---------------------------|
D|--5--7----5--7---5--7---5--7-8-8-8--|
A|--5--7----5--7---5--7---5--7-8-8-8--|
D|--5--7----5--7---5--7---5--7-8-8-8--|
pm . . . . . . . . . . .
E|---------------------------------------------------------------------------------|
B|---------------------------------------------------------------------------------|
G|--7-7-(7)-----------7-7-(7)------------7-7-(7)-----------------------------------|
D|--7-7----(7)--------7-7----(7)---------7-7----(7)--------8-x-x-x-8-x-x-x-x-8-8---|
A|--5-5----------(9)--5-5----------(9)---5-5----------(9)--8-x-x-x-8-x-x-x-x-8-8---|
D|------------(9)----------------(9)----------------(9)----8-x-x-x-8-x-x-x-x-8-8---|
. . . . . . . . . . .
Outro
E|----------------------------------|
B|----------------------------------|
G|--7-7-(7)------------7------------|
D|--7-7----(7)---------7------------|
A|--5-5-----------(9)--5------------|
E|-------------(9)------------------|





Ваше мнение



Капча