guarenteed 100% correct

Verse:
x2 x3 x2
E--------9--9-|--------9-|---------|-----0-0-|-----0-|-------|
B-------10-10-|-------10-|---------|-----5-5-|-----5-|-------|
G--------9--9-|--------9-|-----0-0-|-----6-6-|-----6-|-----0-| x2
D-11-11-------|-11-11----|-----4-4-|-7-7-----|-7-7---|-----4-|
A--9--9-------|--9--9----|-5-5-----|-0-0-----|-0-0---|-5-5---|
D--9--9-------|--9--9----|-5-5-----|---------|-------|-5-5---|

Here are the basic chords if you dont like the patterns ive
placed the chords in.

E------------9-----------|---------|--------0--------|-------|
B-----------10-----------|---------|--------5--------|-------|
G------------9-----------|----0----|--------6--------|---0---|
D-----------11-----------|----4----|--------7--------|---4---|
A------------9-----------|----5----|--------0--------|---5---|
D------------9-----------|----5----|--------x--------|---5---|

pre-chorus:

E-------------------------10/12-|-------------------------5-6----|
B---------------------6-5-10/12-|---------------------5-6--------|
G-------------0-----5-----------|-------------0-----5---------6~-|
D-----3p2---------2-------------|-----3p2---------2--------------|
A---0-----3-0---1---------------|---0-----3-0---1----------------|
D-0-----------------------------|-0------------------------------|

E----------------|
B----------------|
G-------------0--|
D-----3p2--------|
A---0-----3-0----|
D-0--------------|

Chorus:
x4 x2
E-----4-4-|-----0-0-|-----0-0-----4-|
B-----5-5-|-----5-5-|-----7-7-----7-|
G-----6-6-|-----6-6-|-----6-6-----6-| x2
D-6-6-----|-7-7-----|-7-7-----7-7---|
A-4-4-----|-0-0-----|-0-0-----0-0---|
D-4-4-----|---------|---------------|

Again here are the chords for you ppl just incase its a reason
for sumbody to rite a correction!

E----4----|----0----|----0-----4----|
B----5----|----5----|----7-----7----|
G----6----|----6----|----6-----6----|
D----6----|----7----|----7-----7----|
A----4----|----0----|----0-----0----|
D----4----|----x----|----x-----x----|

Other Verse:

E--------------------------------------------------|
B--------------------------------------------------|
G-------7-----------6-----------9-----------9------|
D-----7---7-------7---7-------8---8-------8---8----|
A---5-------5---7-------7---8-------8---8----------|
D-5-----------7-----------8-----------8----------7-|

E--------------------------------------------------|
B--------------------------------------------------|
G-------7-----------7-----------9-----------9------|
D-----7---7-------7---7-------8---8-------8---8-7--|
A---5-------5---7-------7---8-------8---8-----8-7--|
D-5-----------7-----------8-----------8-------8-7--|

E-----5-5-|-----7-7-|--------8--8-| |-5---7----8--|
B-----5-5-|-----7-7-|--------8--8-| |-5---7----8--|
G-----7-7-|-----9-9-|-------10-10-|x2 (chords) = |-7---9---10--|
D-7-7-----|-9-9-----|-10-10-------| |-7---9---10--|
A-5-5-----|-7-7-----|--8--8-------| |-5---7----8--|
D-5-5-----|-7-7-----|--8--8-------| |-5---7----8--|

or the chords might be played like this using the same pattern

E----5----|----7----|------8------|
B----5----|----8----|-----10------|
G----7----|----7----|------9------|
D----7----|----9----|-----10------|
A----5----|----7----|------8------|
D----5----|----7----|------8------|

Chord pre-chorus:
x2
E----------------------8--8-|---------------|
B----------------------8--8-|---------------|
G---------------------10-10-|---------------|
D-0-0-7-7-5-5-5-10-10-------|-0-0-7-7-5-5-5-|
A-0-0-7-7-5-5-5--8--8-------|-0-0-7-7-5-5-5-|
D-0-0-7-7-5-5-5--8--8-------|-0-0-7-7-5-5-5-|

Ending chord:

E-----x----|
B----10----|
G----11----| strummed once
D----11----|
A-----9----|
D-----9----|





Ваше мнение



Капча