Inme
Lava Twilight
Tabbed By Chris G
email:[email protected]

INTRO:
intro part 1: (with distortion)
E|--------------------------------|--------------------------------|
B|--------------------------------|--------------------------------|
G|--------------------------------|--------------------------------|
d|3-------------------------------|4-------------------------------|
A|4-------------------------------|5-------------------------------|
D|4-------------------------------|5-------------------------------|
x3
intro part 1 ending:
|--------------------------------|--------------------------------|
|--------------------------------|--------------------------------|
|--------------------------------|--------------------------------|
|3-------------------------------|--------------------------------|
|4-------------------------------|--------------------------------|
|4---------------(3)b4r3-----4---|5-------------------------------|
|
(pre-bend)
intro part 2: pause

intro part 3 (very quiet with delay and chorus)
|--------------------------------|--------------------------------|
|--------------------------------|--------------------------------|
|6----(not first time)-----------|--------------------------6-6-6-|
|7-------------------------------|----------------7-7-7-7-7-7-7-7-|
|--------------------------------|0-0-0-0-0-0-0-0-0-0-0-0-0-------|
|--------------------------------|0-0-0-0-0-0-0-0-----------------|
x4
intro part 4:
- verse riff 1 x2
VERSE:
riff 1 (with chorus)
|--------------------------------|--------------------------------|
|--------------------------------|--------------------------------|
|--------------------------------|--------6b7r6-------------------|
|----4-------4-------4-----------|--------------------------------|
|2-------4-------2-------4---0---|----5---------------0---4---0---|
|--------------------------------|5---------------0---------------|
x4
riff 2
|--------------------------------|--------------------------------|
|--------------------------------|--------------------------------|
|--------------------------------|------------------2-------2-----|
|----4-------4-------4-----------|----------------0-------0-------|
|2-------4-------2-------4---0---|----5---4---0-------4-------4---|
|--------------------------------|5-------------------------------|
x3
riff 2 ending (just before chorus)
|--------------------------------|--------------------------------|
|--------------------------------|--------------------------------|
|--------------------------------|--------------------------------|
|----4-------4-------4-----------|
|2-------4-------2-------4---0---|
|--------------------------------|

CHORUS (distortion)
|--------------------------------|--------------------------------|
|--------------------------------|--------------------------------|
|4---4-4-4---4-4-4-4-4-4-4(4)4-4-|--------6b7r6b7r6---------------|
|4---4-4-4---4-4-4-4-4-4-4(4)4-4-|5---5-5-----------0-0-0-0(0)0-0-|
|2---2-2-2---2-2-2-2-2-2-2(2)2-2-|5---5-5-----------0-0-0-0(0)0-0-|
|4---4-4-4---4-4-4-4-4-4-4(4)4-4-|5---5-5-----------0-0-0-0(0)0-0-|
x4
VERSE:
- riff 1 x4,
- riff 2 x3,
- riff 2 ending x1
CHORUS:
- chorus pattern x4
INTERLUDE: (with distortion)
|--------------------------------|--------------------------------|
|--------------------------------|--------------------------------|
|6-6-6-6-6-m-6-6-m-6-6-m-6-6-m-6-|6-7-7-m-7-m-7-7-7---------------|
|6-6-6-6-6-m-6-6-m-6-6-m-6-6-m-6-|6-7-7-m-7-m-7-7-7-3-3-3-3-2-0---|
|4-4-4-4-4-m-4-4-m-4-4-m-4-4-m-4-|4-5-5-m-5-m-5-5-5-3-3-3-3-2-0---|
|--------------------------------|--------0-m-0-0-0-3-3-3-3-2-0---|
| | ...etc.
m = mute by taking pressure off of fret-hand
| | ...etc.
|--------------------------------|--------------------------------|
|--------------------------------|--------------------------------|
|6-6-6-6-6-m-6-6-m-6-6-m-6-4-4-6-|6-7-7-m-7-m-7-7-7---------------|
|6-6-6-6-6-m-6-6-m-6-6-m-6-4-4-6-|6-7-7-m-7-m-7-7-7-3-3-3-3-2-0---|
|4-4-4-4-4-m-4-4-m-4-4-m-4-2-2-4-|4-5-5-m-5-m-5-5-5-3-3-3-3-2-0---|
|--------------------------------|--------0-m-0-0-0-3-3-3-3-2-0---|
this block of 4 bars x2

There are two guitars in the next bit (at least in the version i have)
(with distortion)
rhythm guitar plays an altered chorus pattern:
|--------------------------------|--------------------------------|
|--------------------------------|--------------------------------|
|4---4-4-4---4-4-4-4-4-4-4(4)4-4-|--------------------------------|
|4---4-4-4---4-4-4-4-4-4-4(4)4-4-|5---5-5-5---5-5-0-0-0-0-0(0)0-0-|
|2---2-2-2---2-2-2-2-2-2-2(2)2-2-|5---5-5-5---5-5-0-0-0-0-0(0)0-0-|
|4---4-4-4---4-4-4-4-4-4-4(4)4-4-|5---5-5-5---5-5-0-0-0-0-0(0)0-0-|
| |
optional optional
x4
(with distortion):
wherever it says E, it means 11 (easier to read this way)
|--------------------------------|--------------------------------|
|--------------------------------|--------------------------------|
|E---E-E-E9-9-97-7-7---76-6-6-|--------------------------------|
|--------------------------------|--------------------------------|
|--------------------------------|--------------|
|-----------------------------------------------------------|
(this time they're nice harmonics)
|--------------------------------|--------------------------------|
|--------------------------------|--------------------------------|
|E---E-E-E9-9-97-7-7---76-6-6-|--------------------------------|
|--------------------------------|--------------------------------|
|--------------------------------|-----------|
|--------------------------------------------------------------|
this block of four bars twice methinks

QUIET BIT: (with chorus)
|--------------------------------|--------------------------------|





Ваше мнение



Капча