Intro
E-------------------------------------------------7*-------
B-3*---8/6*---7-8-10-11-11-11-11--13-15--------------7*----
G--------------------------------------14-15-14------------
D----------------------------------------------------------
A----------------------------------------------------------
D----------------------------------------------------------

Verse
E-----------------------------------------------
B-3*---8/6*--7-8-10-11-11-11-11--13-15----------
G-------------------------------------14-15-14-- x2
D-----------------------------------------------
A-----------------------------------------------
D-----------------------------------------------

Pre Chorus
E-------------------
B--8---------8------
G---7---8-----7-----
D--------8----------
A-------------------
D-------------------

Chorus
E------------------------------------
B------------------------------------
G------------------------------------
D--8-8--7-7-7-7-7-7--7-7-5/7/8------- x4
A--8-8---------------7-7-5/7/8-------
D--8-8---------------7-7-5/7/8-------

Pre-verse
E-----------------------------------------7*-------------
B---7-8-10-11-11-11-11--13-15---------------7*-----------
G----------------------------14-15-14--------------------
D--------------------------------------------------------
A--------------------------------------------------------
D--------------------------------------------------------

Verse
E----------------------------------------------
B-3*--8/6*--7-8-10-11-11-11-11--13-15----------
G------------------------------------14-15-14-- x2
D----------------------------------------------
A----------------------------------------------
D----------------------------------------------

Pre Chorus
E-------------------
B--8---------8------
G---7---8-----7-----
D--------8----------
A-------------------
D-------------------

Chorus
E------------------------------------
B------------------------------------
G------------------------------------
D--8-8--7-7-7-7-7-7--7-7-5/7/8------- x4
A--8-8---------------7-7-5/7/8-------
D--8-8---------------7-7-5/7/8-------

Bridge
E---------------------------------------
B---3*--8/6*--7-8-10-11-11-11-11-11-11----
G---------------------------------------
D---------------------------------------
A---------------------------------------
D---------------------------------------

Then
E--------------------------------
B--------------------------------
G--------------------------------
D---5-5-5---1-1-1--5-5-5--1-1-1--
A---5-5-5---1-1-1--5-5-5--1-1-1--
D---5-5-5---1-1-1--5-5-5--1-1-1--

Chorus
E------------------------------------
B------------------------------------
G------------------------------------
D--8-8--7-7-7-7-7-7--7-7-5/7/8------- x4
A--8-8---------------7-7-5/7/8-------
D--8-8---------------7-7-5/7/8-------





Ваше мнение



Капча