Howdy everyone, this is my first tab/correction. I went to an InMe gig which was
amazing and this was how Dave played it
Tuning: drop d
e|---------------------------------------------------------------|-----------|
B|---------------------------------------------------------------|-----------|
G|---------+---------------------------+-------------------------|:----------|
D|------+--5------------------3-----+--7----------0-----------3--|:--3-----3-|
A|---+--5------------------3-----+--7----------8-----------3-----|------0----|
D|---5------------2-----3--------7----------8-----------3--------|0----------|
e|---------------------------------------------------------------------------|
B|---------------------------------------------------------------------------|
G|--------------------------------------------------------------------------:|
D|------------3-------3------------3-----3-----3-----3-----3-2--------------:|
A|---0-----0----0------------0--1-----1-----1-----1-----1--------------------|
E|------0----------0------0--------------------------------------------------|
e|---------------------------------------------------------------------------|
B|---------------------------------------------------------------------------|
G|----------------------------------------------5555---3333---22-0-----------|
D|-----------12-----------14------------5------------------------------------|
A|-------10-----------12------------3----------------------------------------|
D|---10-----------12-------------3-------------------------------------------|
e|---------------------------------------------------------------------------|
B|---------------------------------------------------------------------------|
G|----------------------------------------------6666---8888---11-11-9--------|
D|-----------12-----------14------------5------------------------------------|
A|-------10-----------12------------3----------------------------------------|
D|---10-----------12-------------3-------------------------------------------|
| 4(6) bend to note indicated in brackets
| / slide up
| slide down
| h hammer-on
| p pull-off
| ~ vibrato
| + harmonic
| x Mute note
|: :| repeat this part 3 times (bass part)





Ваше мнение



Капча