Intro
E|---------------------------------------------------|
B|---------------------------------------------------|
G|-------------------------------------5^------------|
D|--------------5^-----------------------------------|
A|-------3-0-3-----3-0-3--------3-0-3----3-0-3-------|
D|--0-0---------------------0-0----------------------|
E|---------------------------------------------------|
B|---------------------------------------------------|
G|---------------------------------------------------|
D|--------------5^---------------3---3------3---3----|
A|-------3-0-3-----3-0-3-----------0----------0------|
D|--0-0---------------------0-0--------0-0-----------|
E|---------------------------------------------------|
B|---------------------------------------------------|
G|---------------------------------------------------|
D|--000--444--888--1-11------------------------------|
A|--000--444--888--1-11------------------------------|
D|--000--444--888--1-11------------------------------|
E|---------------------------------------------------|
B|---------------------------------------------------|
G|---------------------------------------------------|
D|--000--444--888--1-111-----------------------------|
A|--000--444--888--1-111-----------------------------|
D|--000--444--888--1-111-----------------------------|
...
E|---------------------------------------------------|
B|---------------------------------------------------|
G|---------------------------------------------------|
D|--000--444--888--111-------------------------------|
A|--000--444--888--111-------------------------------|
D|--000--444--888--111-------------------------------|
Second Guitar? (Use Effect)
E|---------------------------------------------------| |--------------------|
B|---------------------------------------------------| |--------------------|
G|---------------------------------------------------| |--999--777----------|
D|--000--444--888--1-11------------------------------| |--------------------|
A|--000--444--888--1-11------------------------------| |--------------------|
D|--000--444--888--1-11------------------------------| |--------------------|
E|---------------------------------------------------|
B|---------------------------------------------------|
G|---------------------------------------------------|
D|--0-00--4-44--8-88--1------------------------------|
A|--0-00--4-44--8-88--1------------------------------|
D|--0-00--4-44--8-88--1------------------------------|
Chorus
E|---------------------------------------------------|
B|---------------------------------------------------|
G|--------------------------------------5^-----------|
D|---------------5^----------------------------------|
A|--------3-0-3-----3-0-3--------3-0-3----3-0-3------|
D|/--0-0---------------------0-0---------------------|

E|---------------------------------------------------|
B|---------------------------------------------------|
G|---------------------------------------------------|
D|--------------5^------------4--111----4--111-------|
A|-------3-0-3-----3-0-3------4--111----4--111-------|
D|--0-0-----------------------4--111----4--111-------|
E|---------------------------------------------------|
B|---------------------------------------------------|
G|-------------------------------------5^------------|
D|--------------5^-----------------------------------|
A|-------3-0-3-----3-0-3--------3-0-3----3-0-3-------|
D|--0-0---------------------0-0----------------------|
E|---------------------------------------------------|
B|---------------------------------------------------|
G|---------------------------------------------------|
D|--------------5^--------------444-5----------------|
A|-------3-0-3-----3-0-3--------444-5----------------|
D|--0-0-------------------------444-5----------------|
E|---------------------------------------------------|
B|---------------------------------------------------|
G|---------------------------------------------------|
D|---------------5^--------------3---3-----3---3-----|
A|--------3-0-3-----3-0-3----------0---------0-------|
D|---0-0---------------------0-0-------0-0-----------|
E|---------------------------------------------------|
B|---------------------------------------------------|
G|---------------------------------------------------|
D|--0-00--4-44--8-88--1-111--------------------------|
A|--0-00--4-44--8-88--1-111--------------------------|
D|--0-00--4-44--8-88--1-111--------------------------|
E|---------------------------------------------------|
B|---------------------------------------------------|
G|---------------------------------------------------|
D|--0-00--4-44--8-88--1-111--------------------------|
A|--0-00--4-44--8-88--1-111--------------------------|
D|--0-00--4-44--8-88--1-111--------------------------|
...
E|---------------------------------------------------|
B|---------------------------------------------------|
G|-------------------------------------5^------------|
D|--------------5^-----------------------------------|
A|-------3-0-3-----3-0-3--------3-0-3----3-0-3-------|
D|--0-0---------------------0-0----------------------|
E|---------------------------------------------------|
B|---------------------------------------------------|
G|---------------------------------------------------|
D|--------------5^------------4--111----4--111-------|
A|-------3-0-3-----3-0-3------4--111----4--111-------|
D|--0-0-----------------------4--111----4--111-------|
E|---------------------------------------------------|
B|---------------------------------------------------|
G|-------------------------------------5^------------|
D|--------------5^-----------------------------------|
A|-------3-0-3-----3-0-3--------3-0-3----3-0-3-------|
D|--0-0---------------------0-0----------------------|
E|---------------------------------------------------|
B|---------------------------------------------------|
G|---------------------------------------------------|
D|--------------5^--------------444-555--------------|
A|-------3-0-3-----3-0-3--------444-555--------------|
D|--0-0-------------------------444-555--------------|





Ваше мнение



Капча