intro
---------------------------------------
---------------------------------------
--------------------------141414121215-
-----10-----10---------14--------------
-8888---8888---12121212----------------
-8888---8888---12121212----------------
---------------------------------------
---------------------------------------
--------------------------141414121010-
-----10-----10---------14--------------
-8888---8888---12121212----------------
-8888---8888---12121212----------------
verse
-------------------------------
-------------------------------
-------------------------------
---10---10--------14------14---
--8--8-8--8-----12--12--12--12-
-8----8-------12------12-------
pre chourus
-------------------------------
-------------------------------
----------------------14-------
---10---10--------14------14---
--8--8-8--8-----12--12--12--12-
-8----8-------12---------------





Ваше мнение



Капча