[email protected]
if ya need anymore tabs email me. im a nice guy haha.
This should be 100% correct, it took me ages to find this one out.
There is:
* = Palm mute
x = Muted , struck string
/ = Slide up
= Slide down
Intro 1
Intro 2
Riff 1
Riff 2
Riff 3
Chorus 1
Chorus 2
Chorus 3
Chorus 4
Everything seems to be in order so go ahead.!!
(intro 1)
|-----------------------------------------------------------------------|
|-----------------------------------------------------------------------|
|-----------------------------------------------------------------------|
|-----------------------------------------------------------------------|
|---1-----0----0-1-1-1-1//3-3-3------------5-------0--------8------5----|
|-1----1---------------------------------5-------5-------5-------5------|
|--------------------------------------------------------|
|--------------------------------------------------------|
|--------------------------------------------------------|
|3//5-5-5-5-3-3-3-------8------------------------------|
|---------------------6------6---0------0-1-1-1-1//3-3-3-|
|--------------------------------------------------------|
|---------------------------------------------------------------------------------------------------------|
|---------------------------------------------------------------------------------------------------------|
|---------------------------------------------------------------------------------------------------------|
|-5-5-5-5---5-5-5---5-5-5---5-5-5---3//5-5-53-3-3----1-1-1-x-1-1-1-x-1-1-1-x-1-1-1----------------------|
|-5-5-5-5---5-5-5---5-5-5---5-5-5----------------------1-1-1-x-0-0-0-x-1-1-1-x-0-0-0--0-0-0/1-1-13-3-3--|
|-5-5-5-5---5-5-5---5-5-5---5-5-5----------------------1-1-1-x-1-1-1-x-1-1-1-x-1-1-1----------------------|
|----------------------------------------------------------------------------------------------------------|
|----------------------------------------------------------------------------------------------------------|
|----------------------------------------------------------------------------------------------------------|
|-5-5-5-x-5-5-5-x-5-5-5-x-5-5-5---3-3//5-5-53-3-3---8-8-8---1-1-1-x-1-1-1-x-1-1-1------------------------|
|-5-5-5-x-0-0-0-x-8-8-8-x-5-5-5-----------------------6-6-6---0-0-0-x-1-1-1-x-0-0-0---0-0//1-1-1//3-3-3----|
|-5-5-5-x-5-5-5-x-5-5-5-x-5-5-5-------------------------------1-1-1-x-1-1-1-x-1-1-1------------------------|
--
|-----------------------------------------------------|
|-----------------------------------------------------|
|-----------------------------------------------------|
|-5-5-5-x-5-5-5-x-5-5-5-x-5-5-5---3-3//5-5-53-3-3---|
|-5-5-5-x-0-0-0-x-8-8-8-x-5-5-5-----------------------|
|-5-5-5-x-5-5-5-x-5-5-5-x-5-5-5-----------------------|
(Intro 2)
|-------------------------------------------------------------|
|-------------------------------------------------------------|
|-------------------------------------------------------------|
|-------------------------------------------------------------|
|-1-1-1-1-----1-1-0-1-3-5-5-5-5-----5-5-3---3-3-1--1-1-1-1----|
|-1-1-1-1-----1-1-0-1-3-5-5-5-5-----5-5-3---3-3-1--1-1-1-1----|
* * * * * * * * * * * * * * * * * * * *
|---------------------------------------------------------------------------------|
|---------------------------------------------------------------------------------|
|---------------------------------------------------------------------------------|
|-1-1-0-1-3-5-5-5-5-----5-5-5-5----5-5-5-5----5-5-5-5----5-5-5-5----5-5-5---5-5-5-|
|-1-1-0-1-3-5-5-5-5-----5-5-5-5----5-5-5-5----5-5-5-5----5-5-5-5----5-5-5---5-5-5-|
|-1-1-0-1-3-5-5-5-5-----5-5-5-5----5-5-5-5----5-5-5-5----5-5-5-5----5-5-5---5-5-5-|
* * * * * * * * * * * * * * * * * * * * * * * * * *
(Riff 1 with no distortion just harmonics)
|--------------------------------------------------------------------|-----------------------------------------------------|
|-Turn-Distortion-off------------------------------------------------|--Turn-Distortion-On---------------------------------|
|--------------------------------------------------------------------|-----------------------------------------------------|
|-------7------------4----------3----3//5-3-2----------7----------4--|---3-3-3-3-3-3-3-3--3-3-3-3-3-----3-3-3-3-3-----3-3-3|
|----7------------4----------3-----------------------7----------4----|---3-3-3-3-3-3-3-3--3-3-3-3-3-----3-3-3-3-3-----3-3-3|
|-7------------4----------3-----------------------7----------4-------|---3-3-3-3-3-3-3-3--3-3-3-3-3-----3-3-3-3-3-----3-3-3|
* * * * * * * * * * * * * * * * * * * * *
Back to (Intro 1)
|----------------------------------------------------------------------------------------------------------------------------------|
|----------------------------------------------------------------------------------------------------------------------------------|
|----------------------------------------------------------------------------------------------------------------------------------|
|-1-1-1-xx-1-1-1-xx-1-1-1-xx-1-1-1---------------------5-5-5-xx-5-5-5-xx-5-5-5-xx-5-5-5-xx--3-3//5-5-53-3-3--8-8-8-1-1-1-xx-1-1-1|
|-1-1-1-xx-0-0-0-xx-1-1-1-xx-0-0-0---0-0//1-1-1//3-3-3-5-5-5-xx-0-0-0-xx-8-8-8-xx-5-5-5-xx---------------------6-6-6-0-0-0-xx-1-1-1|
|-1-1-1-xx-1-1-1-xx-1-1-1-xx-1-1-1---------------------5-5-5-xx-5-5-5-xx-5-5-5-xx-5-5-5-xx---------------------------1-1-1-xx-1-1-1|
|------------------------------------------------------------------------|
|------------------------------------------------------------------------|
|------------------------------------------------------------------------|
|-1-1-1----------------------5-5-5-xx-5-5-5-xx-5-5-5---3-3//5-5-53-3-3-|
|-0-0-0-0-01-1-13-3-3----5-5-5-xx-0-0-0-xx-8-8-8---------------------|
|-1-1-1----------------------5-5-5-xx-5-5-5-xx-5-5-5---------------------|
Back to (Intro 2 but a bit different)
|------------------------------------------------------------------------------------------------------------|
|------------------------------------------------------------------------------------------------------------|
|------------------------------------------------------------------------------------------------------------|
|------------------------------------------------------------------------------------------------------------|
|-1-1-1-1--1-1-1---1-1-1---1-1-1---1-1-0-0-1-1-3-3-5-5-5-5---5-5-5---5-5-5---5-5-5---5-5-3-3-5-5-3-3-1-1-1-1-|
|-1-1-1-1--1-1-1---1-1-1---1-1-1---1-1-0-0-1-1-3-3-5-5-5-5---5-5-5---5-5-5---5-5-5---5-5-3-3-5-5-3-3-1-1-1-1-|
* * * * * * * * * * * * * * * * * * * * * * * * * * * * * * * * * * * * * * * * * * * * * *
|-----------------------|
|-----------------------|
|-----------------------|
|1-1-1---1-1-1---1-1-1--|
|1-1-1---1-1-1---1-1-1--|
|1-1-1---1-1-1---1-1-1--|
* * * * * * * * *
|-----------------------------------------------------------------|
|-----------------------------------------------------------------|
|-----------------------------------------------------------------|
|-1-1-0-0-1-1-3-3-5-5-5-5---5-5-5---5-5-5---5-5-5---5-5-5---5-5-5-|
|-1-1-0-0-1-1-3-3-5-5-5-5---5-5-5---5-5-5---5-5-5---5-5-5---5-5-5-|
|-1-1-0-0-1-1-3-3-5-5-5-5---5-5-5---5-5-5---5-5-5---5-5-5---5-5-5-|
* * * * * * * * * * * * * * * * * * * * * * * * * * *
Now this is (Riff 2) just before the big Chorus then starts to get better
|--------------------------------------------------------------------|-----------------------------------------------------|
|-Turn-Distortion-Off------------------------------------------------|-Turn-Distortion-On----------------------------------|
|--------------------------------------------------------------------|-----------------------------------------------------|
|-------7------------4----------3----3//5-3-2----------7----------4--|-3-3-3-3-3-3-3-3--3-3-3-3-3-----3-3-3-3-3-----3-3-3--|
|----7------------4----------3-----------------------7----------4----|-3-3-3-3-3-3-3-3--3-3-3-3-3-----3-3-3-3-3-----3-3-3--|
|-7------------4----------3-----------------------7----------4-------|-3-3-3-3-3-3-3-3--3-3-3-3-3-----3-3-3-3-3-----3-3-3--|
* * * * * * * * * * * * * * * * * * * * *
(Chorus 1) just before Chorus 2 comes u
|----------------------------------------------------------------------------------|
|----------------------------------------------------------------------------------|
|----------------------------------------------------------------------------------|
|-7---7-7-7-7---7-7-7-4---4-4-4-4---4-4-4-3---3-3-3-3---3-3-3-3---3-3-3-3---3-3//5-|
|-7---7-7-7-7---7-7-7-4---4-4-4-4---4-4-4-3---3-3-3-3---3-3-3-3---3-3-3-3---3-3//5-|
|-7---7-7-7-7---7-7-7-4---4-4-4-4---4-4-4-3---3-3-3-3---3-3-3-3---3-3-3-3---3-3//5-|
|-------------------------------------------------------------|
|-------------------------------------------------------------|
|-------------------------------------------------------------|
|7---7-7-7-7---7-7-7-4---4-4-4-4---4-4-4-3---3-3-3-3---3-3-3--|
|7---7-7-7-7---7-7-7-4---4-4-4-4---4-4-4-3---3-3-3-3---3-3-3--|
|7---7-7-7-7---7-7-7-4---4-4-4-4---4-4-4-3---3-3-3-3---3-3-3--|
(Chorus 2)Now Chorus 2 lasts a bit
|-------------------------------------------------------------------------------------------------|
|-------------------------------------------------------------------------------------------------|
|-------------------------------------------------------------------------------------------------|
|-3XX5X6XX-7-8-9---9-9-9-9---9-9-9-9---9-9-9-9---9-11-7-5---5-5-5-5---5-5-5-5---5-5-5-5---5-5//-7-|
|-3XX5X6XX-7-8-9---9-9-9-9---9-9-9-9---9-9-9-9---9-11-7-5---5-5-5-5---5-5-5-5---5-5-5-5---5-5//-7-|
|-3XX5X6XX-7-8-9---9-9-9-9---9-9-9-9---9-9-9-9---9-11-7-5---5-5-5-5---5-5-5-5---5-5-5-5---5-5//-7-|
|-----------------------------------------|
|-----------------------------------------|
|-----------------------------------------|
|9---9-9-9-9---9-9-9-9---9-9-9-9---9-11-7-|
|9---9-9-9-9---9-9-9-9---9-9-9-9---9-11-7-|
|9---9-9-9-9---9-9-9-9---9-9-9-9---9-11-7-|
|---------------------------------------------------------------------------------------------------------------------------|
|---------------------------------------------------------------------------------------------------------------------------|
|---------------------------------------------------------------------------------------------------------------------------|
|-5--5-5-5-5---5-5-5-5---5-5-5-5---5-5//-7-9---9-9-9-9---9-9-9-9---9-9-9-9---9-11-7-5---5-5-5-5---5-5-5-5---5-5-5-5---5-5//7|
|-5--5-5-5-5---5-5-5-5---5-5-5-5---5-5//-7-9---9-9-9-9---9-9-9-9---9-9-9-9---9-11-7-5---5-5-5-5---5-5-5-5---5-5-5-5---5-5//7|
|-5--5-5-5-5---5-5-5-5---5-5-5-5---5-5//-7-9---9-9-9-9---9-9-9-9---9-9-9-9---9-11-7-5---5-5-5-5---5-5-5-5---5-5-5-5---5-5//7|
Now (Chorus 2) Stops a bit leading it into the start of (Intro 1) Then changes into (Riff 3)
|---------------------------------------------------------------------------------------------------------------------------------|
|---------------------------------------------------------------------------------------------------------------------------------|
|---------------------------------------------------------------------------------------------------------------------------------|
|-9---9-9-9-9---9-9-9-9---9-9-9-9---9-11-7-5---5-5-5-5---5-5-5-5-xx-5-xx-5-xx-5-xx-5--------------------------------------------|
|-9---9-9-9-9---9-9-9-9---9-9-9-9---9-11-7-5---5-5-5-5---5-5-5-5-xx-5-xx-5-xx-5-xx-5----1-----0-----1-----0---0-1-1-1-1//3-3-3--|
|-9---9-9-9-9---9-9-9-9---9-9-9-9---9-11-7-5---5-5-5-5---5-5-5-5-xx-5-xx-5-xx-5-xx-5-1-----1-----1-----1------------------------|
(Riff 3)
|------------------------------------------------------------------------------------|
|--------8-------------8-----8-8-8-8-8---8-8-8-8-8---8-slide-all-the-way-down--|
|----6--------------6----------------------------------------------------------------|
|-5--------------5-------------------------------------------------------------------|
|------------------------------------------------------------------------------------|
|------------------------------------------------------------------------------------|
Now it starts again with (Chorus 3) Leading it into (Chorus 4)
|---------------------------------------------------------------------------------------------------------------------------|
|---------------------------------------------------------------------------------------------------------------------------|
|---------------------------------------------------------------------------------------------------------------------------|
|-9---9-9-9-9---9-9-9-9---9-9-9-9---9-11-7-5---5-5-5-5---5-5-5-5---5-5-5-5---5-5//-7-9---9-9-9-9---9-9-9-9---9-9-9-9--9-11-7|
|-9---9-9-9-9---9-9-9-9---9-9-9-9---9-11-7-5---5-5-5-5---5-5-5-5---5-5-5-5---5-5//-7-9---9-9-9-9---9-9-9-9---9-9-9-9--9-11-7|
|-9---9-9-9-9---9-9-9-9---9-9-9-9---9-11-7-5---5-5-5-5---5-5-5-5---5-5-5-5---5-5//-7-9---9-9-9-9---9-9-9-9---9-9-9-9--9-11-7|
(Chorus 4) Now it leads into the end part
|---------------------------------------------------------------------------------------------------------------------------------|
|---------------------------------------------------------------------------------------------------------------------------------|
|---------------------------------------------------------------------------------------------------------------------------------|
|-5---5-5-5-5---5-5-5-5-XX-7-XX-9-XX-11-12-9---9-9-9-9---9-9-9-9---9-9-9-9---9-11-7-5---5-5-5-5---5-5-5-5---5-5-5-5---11-11-12-12-|
|-5---5-5-5-5---5-5-5-5-XX-7-XX-9-XX-11-12-9---9-9-9-9---9-9-9-9---9-9-9-9---9-11-7-5---5-5-5-5---5-5-5-5---5-5-5-5---11-11-12-12-|
|-5---5-5-5-5---5-5-5-5-XX-7-XX-9-XX-11-12-9---9-9-9-9---9-9-9-9---9-9-9-9---9-11-7-5---5-5-5-5---5-5-5-5---5-5-5-5---11-11-12-12-|
(End)
|-------------------------------------------------------------------------------------------|
|-------------------------------------------------------------------------------------------|
|-------------------------------------------------------------------------------------------|
|-9---9-9-9-9---9-9-9-9---9-9-9-9---9-11-7-5-xx-5-xx-5-xx-5-xx-5-xx-5-xx-5-xx-51-1---1-1--|
|-9---9-9-9-9---9-9-9-9---9-9-9-9---9-11-7-5-xx-5-xx-5-xx-5-xx-5-xx-5-xx-5-xx-51-1---0-0--|
|-9---9-9-9-9---9-9-9-9---9-9-9-9---9-11-7-5-xx-5-xx-5-xx-5-xx-5-xx-5-xx-5-xx-51-1---1-1--|
If ya think this song sucks dial 555 - KISS MY ASS HAHA


Ваше мнение



Капча