Intro:-
E--------------------------------
B--------------------------------
G--------------------------------
D--55-33-66-22--55-33h6-1/2/3/4--
A--55-33-66-22--55-33h6-1/2/3/4--
D--55-33-66-22--55-33h6-1/2/3/4--

(0.06)
E--------------------------------
B--------------------------------
G--------------------------------
D--55-33-66-22--55-33-66--6h7---- x2
A--55-33-66-22--55-33-66-----6h7-
D--55-33-66-22--55-33-66---------

(0.17)
E------------15------------
B--------------------------
G--------------------------
D--55-33-66------55-33-66-- x2
A--55-33-66------55-33-66--
D--55-33-66------55-33-66--

(0.29)
E--------------------------------
B--------------------------------
G--------------------------------
D--55-33-66-22--55-33-66--6h7---- x2
A--55-33-66-22--55-33-66-----6h7-
D--55-33-66-22--55-33-66---------

(0.40)
E------------------
B------------------
G------------------
D--55-55-55-5-5----
A--55-55-55-5-5----
D--55-55-55-5-5----
pm... .. . .

(0.43)
E-----------------------------------------------
B------0----0-----------------0-----0-----------
G------------------5-----2-----------------5----
D--555---555---444---111---555---555---444---1--
A--555---555---444---111---555---555---444---1--
D--555---555---444---111---555---555---444---1--
pm. pm. pm. pm. pm. pm. pm. pm

(0.49)
E------------15--------------------
B----------------------------------
G----------------------------------
D--55-33-66------55-33-66--6h7-----
A--55-33-66------55-33-66-----6h7--
D--55-33-66------55-33-66----------
pm....
(0.54)
E------------15------------
B--------------------------
G--------------------------
D--55-33-66------55-33-66--
A--55-33-66------55-33-66--
D--55-33-66------55-33-66--(pick scrape down string)

(1:00)
E--------------------------------
B--------------------------------
G--------------------------------
D--55-33-66-22--55-33-66--6h7---- x2
A--55-33-66-22--55-33-66-----6h7-
D--55-33-66-22--55-33-66---------

(1:11)
E------------------
B------------------
G------------------
D--55-55-55-5-5----
A--55-55-55-5-5----
D--55-55-55-5-5----
pm... .. . .

(1:14)
E--------------------------
B------0-----0-------------
G------------------5-----2-
D--555---555---444---111--- x3
A--555---555---444---111---
D--555---555---444---111---
pm. pm. pm. pm.

(1:22)
E------------------------------
B------0-----0-----------------
G------------------5-----2-----
D--555---444---555---444---1---
A--555---444---555---444---1---
D--555---444---555---444---1---





Ваше мнение



Капча