Tabbed by Colin Edwards
drop D tuning
this is not totally right, but close
intro/outro
----------------------------|
----------------------------|
----------------------------|
----------------------------|
-----3---5-3-1--------------|
-3-3---3-------1------------|
verse(i know this isnt right, its hard to hear)
---------------------------|
---------------------------|
---------------------------|
-----3-1------7-3----------|
---1--------5--------------|
-1--------5----------------|
pre-chorus (palm muted)
---------------------------|
---------------------------|
---------------------------|
-1---5---3---0---3---1-----|
-1---5---3---0---3---1-----|
-1---5---3---0---3---1-----|
chorus
---------------------------|
---------------------------|
---------------------------|
---------------5-5-5-3-3-3-|
---1-3-----3-5-5-5-5-3-3-3-|
-5-----1-3-----5-5-5-3-3-3-|
interlude
---------------------------|
---------------------------|
---------------------------|
-3-3--3-3--3-3--3-3-1~-----|
-3-3--3-3--3-3--3-3-1~-----|
-3-3--3-3--3-3--3-3-1~-----|
you can figure out the ending riff




Ваше мнение



Капча