Artist: Injected
Album: Burn It Black
Song: I-IV-V

Standard E Tuning

E---------------------------|
B---------------------------|
G------------------8-10-12~-|
D-777-555-3~-3/15-8-10-12~-|
A-777-555-3~-3/15-8-10-12~-|
E-777-555-3~-3/15----------|

This sounds pretty close to the intro, and this is what I got for the riff:

E--------------------------|
B--------------------------|
G--------------------------|
D-7-5-7-5--5-5-x-5-5-x-5-5-|
A-7-5-7-5--5-5-x-5-5-x-5-5-|
E-5-3-5-3--3-3-x-3-3-x-3-3-|
Play 7 times then go directly to the music below

E-------------------------|
B-------------------------|
G-------------------------|
D-7-5-7-5--x-x-x-------0~-|
A-7-5-7-5--x-x-x---0------|
E-5-3-5-3--x-x-x-0---0----|

Repeat this again for verse 2, I couldnt figure out hte chorus though.




Ваше мнение



Капча