Artist: Injected
Album: Burn It Black
Song: Bullet
Tuning: Standard E

*=Harmonics
/ or =Slide
b=Bend
( )=Palm Mute
~=Sustain (Let the note ring out)

Intro

E-----]
B-----]
G-----]
D-1/5-]
A-1/5-]
E-1/5-]
Play Once and go directly to the music below.

E-----------------]
B-----------------]
G-----------------]
D-5-5-5-5-7-5-7-5-]
A-5-5-5-5-7-5-7-5-]
E-5-5-5-5-7-5-7-5-]
Repeat 4 Times

Chorus (No Vocals)

E-----------------------------------]
B-----------------------------------]
G-----------------------------------]
D-5-5-5-5-7-5-7-5-(5-5-5-5-5-5-5-5)-]
A-5-5-5-5-7-5-7-5-(5-5-5-5-5-5-5-5)-]
E-5-5-5-5-7-5-7-5-(5-5-5-5-5-5-5-5)-]
Play 4 Times

Verse
E---------------------]
B---------------------]
G---------------------]
D-2/42~-2-4-2-4/64~-]
A-2/42~-2-4-2-4/64~-]
E-2/42~-2-4-2-4/64~-]
Play 4 Times

Pre-Chorus

E-----------------------]
B-----------------------]
G-----------------------]
D-x-x-9-9-x-x-9-9-x-x-9-]
A-x-x-9-9-x-x-9-9-x-x-9-]
E-x-x-9-9-x-x-9-9-x-x-9-]
Play 3 Times then go directly to the music below.

E-----------------------------]
B-----------------------------]
G-----------------------------]
D-x-x-9-9-x-x-9-9-x-x-9-9-9-9-]
A-x-x-9-9-x-x-9-9-x-x-9-9-9-9-]
E-x-x-9-9-x-x-9-9-x-x-9-9-9-9-]

Chorus (Vocals)

E-----------------------------------]
B-----------------------------------]
G-----------------------------------]
D-5-5-5-5-7-5-7-5-(5-5-5-5-5-5-5-5)-]
A-5-5-5-5-7-5-7-5-(5-5-5-5-5-5-5-5)-]
E-5-5-5-5-7-5-7-5-(5-5-5-5-5-5-5-5)-]
Play 8 Times

Verse

E---------------------]
B---------------------]
G---------------------]
D-2/42~-2-4-2-4/64~-]
A-2/42~-2-4-2-4/64~-]
E-2/42~-2-4-2-4/64~-]
Play 4 Times

Pre-Chorus

E-----------------------]
B-----------------------]
G-----------------------]
D-x-x-9-9-x-x-9-9-x-x-9-]
A-x-x-9-9-x-x-9-9-x-x-9-]
E-x-x-9-9-x-x-9-9-x-x-9-]
Play 3 Times then go directly to the music below.

E-----------------------------]
B-----------------------------]
G-----------------------------]
D-x-x-9-9-x-x-9-9-x-x-9-9-9-9-]
A-x-x-9-9-x-x-9-9-x-x-9-9-9-9-]
E-x-x-9-9-x-x-9-9-x-x-9-9-9-9-]

Chorus (Vocals)

E-----------------------------------]
B-----------------------------------]
G-----------------------------------]
D-5-5-5-5-7-5-7-5-(5-5-5-5-5-5-5-5)-]
A-5-5-5-5-7-5-7-5-(5-5-5-5-5-5-5-5)-]
E-5-5-5-5-7-5-7-5-(5-5-5-5-5-5-5-5)-]
Play 8 Times

Interlude

E----------------------]
B----------------------]
G----------------------]
D----------------------]
A----------------------]
E-3/5-3/5-3/5-3/5-5/7b-]
Play 4 Times

E----------------------]
B----------------------]
G----------------------]
D-3/5-3/5-3/5-3/5-5/7b-]
A-3/5-3/5-3/5-3/5-5/7b-]
E-3/5-3/5-3/5-3/5-5/7b-]
Play 4 Times (This is when Danny is yelling.)

E-17*~-15*~-19*~15*~-17*~-15*~-19*~15*~-]
B---------------------------------------]
G---------------------------------------]
D---------------------------------------]
A---------------------------------------]
E---------------------------------------]
Play this only once. (This is when Danny is sort of whispering.)

Chorus (Vocals)

E-----------------------------------]
B-----------------------------------]
G-----------------------------------]
D-5-5-5-5-7-5-7-5-(5-5-5-5-5-5-5-5)-]
A-5-5-5-5-7-5-7-5-(5-5-5-5-5-5-5-5)-]
E-5-5-5-5-7-5-7-5-(5-5-5-5-5-5-5-5)-]
Play 8 Times

END

This is a fairly simple song and it sounds really nice. Have fun.





Ваше мнение



Капча