Infectious Grooves
Violent & Funky
from Groove Family Cyco
Tabbed by Rodrigo G. Segura ([email protected])
p pop
h hammer on
l lifted off
s slap
  p  h    p   l   p  l                                                      
G---------------------------
D-10-12---12-10---10-9------
A---------------------------
E----------------------0/16-

G-----------------------------------------------------
D-----------------------------------------------------
A-5---------------------------2-2-2-2-3-3-3-3-4-4-4-4-
E---2-2-2-2-3-3-3-3-4-4-4-4-5-------------------------
  p h p h p h s h                     
G-5-7-------------------------------------------------
D-----5-7-3-5-----------------------------------------
A-------------3-5-------------------------------------
E-----------------------------------------------------

I LIKE PRIMUS, INFECTIOUS GROOVES, RED HOT CHILI PEPPERS, AND I PLAY A SIX
STRING BASS. IF YOU KNOW OTHER INFECTIOUS GROOVES SONGS, PLEASE EMAIL ME.
Any questions, comments, email me [email protected]




Ваше мнение



Капча