Infectious Grooves
Infecto Groovalistic
from The plague that......
Tabbed by Rodrigo G. Segura ([email protected])
Standard tunning
Intro:
G|------------------------------------------
D|--14-12-14--------------------------------
A|-----------12-14-10-----------------------
E|------------------------------------------
B|------------------------------------------
Verse:
G|------------------------------------------
D|------------------------------------------
A|-----7-----6--7-----6--7---9-8-7-------6--
E|-------8-7------8-7------8-------8-7------
B|------------------------------------------
Chorus:
G|---------------------------------------------------
D|---------------------------------------------------
A|----7---6-7-------9-9-8-----6-7---6-7------9-9-8---
E|------8-----8--8----------------8-----8--8---------
B|---------------------------------------------------




Ваше мнение



Капча