Date: Wed, 31 Dec 1997 16:03:15 -0500 (EST)
From: WishMonstr
Subject: TAB: hey_kind_friend.crd by Indigo Girls
Hey Kind Friend (guitars)
-Amy Ray
4/4 time
Part One: Amy's guitar
Part Two: Emily's dulcimer
*NOTE FROM ME: You absolutely NEED to listen to the
album to get the hang of this, especially for the outro
and for the dulcimer part. Excuse any and all typos.
Ok, enjoy! =)
Part Three: Amy's guitar, also, I believe
-------------------------------
_Parts One & Three_
-------------------------------
Esus: 022200
A: x02220
E: 022100
_GUITAR RIFF ONE_:
D---2---2---4---4-l---0---0---2---2-l
A-0---0---0---0---l---------0---0---l
E-----------------l-3---2-----------l
*** intro = 10 measures. Riff one starts at the first
measure and continues until Part three enters
(part three is the chords at the bridge and chorus).
Guitar one should (also) play Part Three. ***
*** vocal comes in at eleventh measure ***
Hey kind friend
I don't know when I'll see you again
on a ferry boat bound to Victoria
layin' down to hide from the wind
Big Dipper hangin' over the city
and everything now is different for me
and it ain't no use in explainin'
the scenery
Esus
I said hey kind friend
A
Help me forget where I've been
Esus
Hey kind friend remember who I am
I was too late in Spokane
So I caught a ride through the Cascade range
I saw the sun die in Olympia
Running down on Capital Lake
Now I ask you for some relief
it's one true route that you bring to me
it's 3 am, and it's good company
Esus E A
I said hey kind friend help me forget where I've been
Esus E A
Hey kind friend help me remember who I am
Esus E A
Hey kind friend, don't know if I'm gonna see you again
Esus E A
it's okay friend, it's okay friend
*bridge*
A x3
Esus E A A x6
Esus E A (hold)
*** 4 measures of only part two, then 8 measures of part
one and part two, and then two measures of only part
one. ***
So I'll meet you in New Orleans
I'll see you around
'Cause I don't know if it's worth comin' down
and callin' from a gold rush town
Esus E A
And I said hey kind friend help me forget where I've been
Esus E A
Hey kind friend help me remember who I am
Esus E A
Hey kind friend, said I don't know if I'm gonna see you again
Esus E A
it's okay friend, I'm okay friend
Esus Esus (stop)
I said I'm okay friend, I'm okay friend.
*** THE OUTRO ***
After the last "I'm okay", and starting on the word "friend",
Part One ceases to exist for four measures. On the fifth
measure, Part Two rests for two measure when Riff One picks
back up. The both continue until they fade out into
nothing . . .
____________________________________________________
Hey Kind Friend - Guitar #2
---------------------------
* \ is hammer on\off
* = is slide
e-------------l-------------l-------------l-----2-0---------l
B-------------l-------------l-----0-2-2-2-l-2/3-----3-3-2-2-l
G-------------l-------------l-2-2---------l-----------------l
D-------------l-------------l-------------l-----------------l
A-------------l-------------l-------------l-----------------l
E-------------l-------------l-------------l-----------------l
e-------------l-----2-0---------l
B-----0-2-2-2-l-2/3-----3-3-2-2-l
G-2-2---------l-----------------l
D-------------l-----------------l
A-------------l-----------------l
E-------------l-----------------l
e-------------l-----2-0---------l
B-----0-2-2-2-l-2/3-----3-3-2-2-l
G-2-2---------l-----------------l
D-------------l-----------------l
A-------------l-----------------l
E-------------l-----------------l
e-------------l-----2-0---------l
B-----0-2-2-2-l-2/3-----3-3-2-2-l
G-2-2---------l-----------------l
D-------------l-----------------l
A-------------l-----------------l
E-------------l-----------------l
e---------------l-----2-0---------l
B-----0-2-2-2---l-2/3-----3-3-2-2-l
G-2-2-----------l-----------------l
D---------------l-----------------l
A---------------l-----------------l
E---------------l-----------------l
1. Hey kind friend
e---------------------------------l-----2-0---------l
B-----0-2-2-2---------------------l-2/3-----3-3-2-2-l
G-2-2-----------------------------l-----------------l
D---------------------------------l-----------------l
A---------------------------------l-----------------l
E---------------------------------l-----------------l
I don't know when I'll see you again
e---------------------------------l-----2-0---------l
B-----0-2-2-2---------------------l-2/3-----3-3-2-2-l
G-2-2-----------------------------l-----------------l
D---------------------------------l-----------------l
A---------------------------------l-----------------l
E---------------------------------l-----------------l
on a ferry boat bound to Victoria
e---------------------------------l-----2-0---------l
B-----0-2-2-2---------------------l-2/3-----3-3-2-2-l
G-2-2-----------------------------l-----------------l
D---------------------------------l-----------------l
A---------------------------------l-----------------l
E---------------------------------l-----------------l
layin' down to hide from the wind
e-5-5-5-l-5-5/3-3-3-3/5-5-l----5-------5---------5----l-5-5---l
B-------l-----------------l---------------------------l-------l
G-------l-----------------l---------------------------l-------l
D-------l-----------------l---------------------------l-------l
A-------l-----------------l---------------------------l-------l
E-------l-----------------l---------------------------l-------l
Big Dipper hangin' over the city
e-------------l---------------------------------------l
B-2-3-2-0-2---l---------------------------------------l
G-----------2-l---------------------------------------l
D-------------l---------------------------------------l
A-------------l---------------------------------------l
E-------------l---------------------------------------l
and everything now is different for me
e----------------------l----------l------------l
B-2-3-5-3-2------------l-2-3-2----l------------l
G-----------2----------l----------l------------l
D----------------------l----------l-2----------l
A----------------------l----------l------------l
E----------------------l----------l------------l
and it ain't no use in explainin' the scenery
e-------------l-----2-0-------------l
B-----0-2-2-2-l-2/3-----3-3-2-2-----l
G-2-2---------l---------------------l
D-------------l---------------------l
A-------------l---------------------l
E-------------l---------------------l
I said . . .
e-7-------l-7---------------l-5------------l-5------------l-7--l
B-10------l-10--------------l-5------------l-5------------l-10-l
G-9-------l-9---------------l-6------------l-6------------l-9--l
D-7-------l-7---------------l-7------------l-7------------l-7--l
A-7-------l-7---------------l-7------------l-7------------l-7--l
E-7-------l-7---------------l-5------------l-5------------l-7--l
Hey kind friend help me forget where I've been Hey kind friend
e-7---------------l-5-5-5-5--l-7-10-10-10-10-10/9-9-7-5--l
B-10--------------l----------l---------------------------l
G-9---------------l----------l---------------------------l
D-7---------------l----------l---------------------------l
A-7---------------l----------l---------------------------l
E-7---------------l----------l---------------------------l
remember who I am
e-5-5-5-5--l-7-10-10-10-10-10/9-9-7-5--l----5---5---5---5---5----l
B----------l---------------------------l-------------------------l
G----------l---------------------------l-------------------------l
D----------l---------------------------l-------------------------l
A----------l---------------------------l-------------------------l
E----------l---------------------------l-------------------------l
I was too late in Spokane
e-5-5-3-3-2-5--l-----5-----5-----5-----5------5--------l
B--------------l---------------------------------------l
G--------------l---------------------------------------l
D--------------l---------------------------------------l
A--------------l---------------------------------------l
E--------------l---------------------------------------l
So I caught a ride through the Cascade
e-5-5-5-3-3-2----l--------------l-----------------------------l
B----------------l--------------l-----------------------------l
G----------------l--------------l-----------------------------l
D----------------l--------------l-----------------------------l
A----------------l--------------l-----------------------------l
E----------------l--------------l--0--------------------------l
range I saw the sun die in Olympia running down on Capital
e----------l--------------------l-------------------------l
B-0-2-3-2--l-0-2-3-2-2-3-5-3-2--l-------------------------l
G----------l--------------------l-2-----------------------l
D----------l--------------------l-------------------------l
A----------l--------------------l-------------------------l
E----------l--------------------l-------------------------l
lake Now I ask you for some
e------------l---------------------l----------------------------l
B-2-3-5-3=2--l---------------------l-----------------2-3-5-2=5--l
G------------l-2-------------------l----------------------------l
D------------l---------------------l----------------------------l
A------------l---------------------l----------------------------l
E------------l---------------------l----------------------------l
relief It's one true root that you bring to me
e-----------------------------l----------------------l
B-2---------------2-5-7-10-9--l-----------9==2----3--l
G-----------------------------l----------------------l
D-----------------------------l----------------------l
A-----------------------------l----------------------l
E-----------------------------l----------------------l
it's three a.m. and it's good company
e-------------l-----2-0---------l
B-----0-2-2-2-l-2/3-----3-3-2-2-l
G-2-2---------l-----------------l
D-------------l-----------------l
A-------------l-----------------l
E-------------l-----------------l
I said . . .
e-7-------l-7----------------l-5------------l
B-10------l-9----------------l-5------------l
G-9-------l-9----------------l-6------------l
D-7-------l-9----------------l-7------------l
A-7-------l-7----------------l-7------------l
E-7-------l-7----------------l-5------------l
Hey kind friend help me forget where I've
e-5------------l-7------------l-7------------l-5--l-5----l
B-5------------l-10-----------l-9------------l-5--l-5----l
G-6------------l-9------------l-9------------l-6--l-6----l
D-7------------l-7------------l-9------------l-7--l-7----l
A-7------------l-7------------l-7------------l-7--l-7----l
E-5------------l-7------------l-7------------l-5--l-5----l
been Hey kind friend help me remember who I am Hey kind
e-7----------------------l-7----l-5-----l-5-----------l
B-10---------------------l-9----l-5-----l-5-----------l
G-9----------------------l-9----l-6-----l-6-----------l
D-7----------------------l-9----l-7-----l-7-----------l
A-7----------------------l-7----l-7-----l-7-----------l
E-7----------------------l-7----l-5-----l-5-----------l
friend don't know if I'm gonna see you again it's ok
e-7-----l-7--------l--------------l-----2-0----------l
B-10----l-9--------l-----0-2-2-2--l-2/3-----3-3-2-2--l
G-9-----l-9--------l-2-2----------l------------------l
D-7-----l-9--------l--------------l------------------l
A-7-----l-7--------l--------------l------------------l
E-7-----l-7--------l--------------l------------------l
friend it's okay friend
e--------------l-----2-0----------l-7---l-7---l-5---l
B-----0-2-2-2--l-2/3-----3-3-2-2--l-10--l-9---l-5---l
G-2-2----------l------------------l-9---l-9---l-6---l
D--------------l------------------l-7---l-9---l-7---l
A--------------l------------------l-7---l-7---l-7---l
E--------------l------------------l-7---l-7---l-5---l
*_bridge_*
e-5----l-7----l-7----l-5----l------------------l
B-5----l-10---l-9----l-5----l-7-7-5-5-3-3-2/0--l
G-6----l-9----l-9----l-6----l------------------l
D-7----l-7----l-9----l-7----l------------------l
A-7----l-7----l-7----l-7----l------------------l
E-5----l-7----l-7----l-5----l------------------l
e-7---l-5---l-5---l-7----l-7---l-5---l-5---l
B-9---l-5---l-5---l-10---l-9---l-5---l-5---l
G-9---l-6---l-6---l-9----l-9---l-6---l-6---l
D-9---l-7---l-7---l-7----l-9---l-7---l-7---l
A-7---l-7---l-7---l-7----l-7---l-7---l-7---l
E-7---l-5---l-5---l-7----l-7---l-5---l-5---l
e-7----l-7---l-5---l-5---l-7----l-7---l-5---l
B-10---l-9---l-5---l-5---l-10---l-9---l-5---l
G-9----l-9---l-6---l-6---l-9----l-9---l-6---l
D-7----l-9---l-7---l-7---l-7----l-9---l-7---l
A-7----l-7---l-7---l-7---l-7----l-7---l-7---l
E-7----l-7---l-5---l-5---l-7----l-7---l-5---l
e--------------l-----2-0----------l
B-----0-2-2-2--l-2/3-----3-3-2-2--l
G-2-2----------l------------------l
D--------------l------------------l
A--------------l------------------l
E--------------l------------------l
e--------------l-----2-0----------l
B-----0-2-2-2--l-2/3-----3-3-2-2--l
G-2-2----------l------------------l
D--------------l------------------l
A--------------l------------------l
E--------------l------------------l
e--------------l-----2-0----------l
B-----0-2-2-2--l-2/3-----3-3-2-2--l
G-2-2----------l------------------l
D--------------l------------------l
A--------------l------------------l
E--------------l------------------l
e--------------l-----2-0----------l
B-----0-2-2-2--l-2/3-----3-3-2-2--l
G-2-2----------l------------------l
D--------------l------------------l
A--------------l------------------l
E--------------l------------------l
e-----l-----l-------------------------------l
B-----l-----l-------------------------------l
G-----l-----l-------------------------------l
D-----l-----l-------------------------------l
A-----l-----l-------------------------------l
E-----l-----l-------------------------------l
So I'll meet you in New Orleans
e---------------------l-------l
B---------------------l-------l
G---------------------l-------l
D---------------------l-------l
A---------------------l-------l
E---------------------l-------l
I'll see you around
e-----------------------------------l
B-----------------------------------l
G-----------------------------------l
D-----------------------------------l
A-----------------------------------l
E-----------------------------------l
'Cause I don't know if it's worth
e----------------l---2-0-----l----------------l
B----------------l-------0---l----------------l
G----------------l-----------l----------------l
D----------------l-----------l----------------l
A----------------l-----------l----------------l
E----------------l-----------l----------------l
comin' down and callin' you from a gold rush
e--------------l-----2-0----------l
B-----0-2-2-2--l-2/3-----3-3-2-2--l
G-2-2----------l------------------l
D--------------l------------------l
A--------------l------------------l
E--------------l------------------l
town And I said . . .
e-0--------l-0-------------------l
B-0--------l-0-------------------l
G-2--------l-1-------------------l
D-2--------l-2-------------------l
A-2--------l-2-------------------l
E-0--------l-0-------------------l
hey kind friend help me for-
e-0--------------l-0-------------l
B-2--------------l-2-------------l
G-2--------------l-2-------------l
D-2--------------l-2-------------l
A-0--------------l-0-------------l
E----------------l---------------l
-get where I've been hey kind
e-0-------------l-0---------------l
B-0-------------l-0---------------l
G-2-------------l-1---------------l
D-2-------------l-2---------------l
A-2-------------l-2---------------l
E-0-------------l-0---------------l
friend help me remember who I
e-0--------l-0----------l
B-2--------l-2----------l
G-2--------l-2----------l
D-2--------l-2----------l
A-0--------l-0----------l
E----------l------------l
am hey kind
e-0-----------------l-0-----------------l-0----------l
B-0-----------------l-0-----------------l-2----------l
G-2-----------------l-1-----------------l-2----------l
D-2-----------------l-2-----------------l-2----------l
A-2-----------------l-2-----------------l-0----------l
E-0-----------------l-0-----------------l------------l
friend said I don't know if I'm gonna see you ag-
e-0-------------l-0-----l-0-------l
B-2-------------l-0-----l-0-------l
G-2-------------l-2-----l-1-------l
D-2-------------l-2-----l-2-------l
A-0-------------l-2-----l-2-------l
E---------------l-0-----l-0-------l
-ain It's okay friend I'm okay
e------------l--------------l------------l------l
B-2-3=5=3-2--l--------------l-2-3=5=3=2--l------l
G------------l-2------------l------------l-2----l
D------------l--------------l------------l------l
A------------l--------------l------------l------l
E------------l--------------l------------l------l
friend I said I'm ok friend I'm ok
e------------l-----l-------------l-----l
B-2-3=5=3-2--l-----l-2-3=5=3-2---l-----l
G------------l-2---l-------------l-2---l
D------------l-----l-------------l-----l
A------------l-----l-------------l-----l
E------------l-----l-------------l-----l
friend
e-----------l------------l
B-----------l------------l
G-----------l------------l
D-----------l------------l
A-----------l------------l
E-----------l------------l
e--------------l-----2-0----------l
B-----0-2-2-2--l-2/3-----3-3-2-2--l
G-2-2----------l------------------l
D--------------l------------------l
A--------------l------------------l
E--------------l------------------l
e--------------l-----2-0----------l
B-----0-2-2-2--l-2/3-----3-3-2-2--l
G-2-2----------l------------------l
D--------------l------------------l
A--------------l------------------l
E--------------l------------------l
e--------------l-----2-0----------l
B-----0-2-2-2--l-2/3-----3-3-2-2--l
G-2-2----------l------------------l
D--------------l------------------l
A--------------l------------------l
E--------------l------------------l
e--------------l-----2-0----------l
B-----0-2-2-2--l-2/3-----3-3-2-2--l
G-2-2----------l------------------l
D--------------l------------------l
A--------------l------------------l
E--------------l------------------l
-The Wish Monster
[email protected]




Ваше мнение



Капча