IN FLAMES - WAYFAERER
From the Album THE JESTER RACE
Copyright NUCLEAR BLAST 1995
Version 1.3 - MARCH 2001
Transcribed by: Haris Durakovic
Additions/Corrections/Reformated by: Mike O'Neil
For Questions, Comments, Newest Version, or Corrections contact
Haris Durakovic: at [email protected]
Mike O'Neil: at [email protected]
Check out The Ultimate In Flames tribute at:
http://www.in-flames.com
.. - palm mute / - slide up to
- slide down to ~ - vibrato
h - hammer on b - bend
p - pull off Suffixes for bend
ph - pinch harmonic
f - full bend h - half bend
* - see comment r - release t - tap bend
X - percussion mute ~ - vibrato bend
@ - slight palm mute () - ghost note, sustained note
Tune Gtr to C (C, F, A#, D#, G, C)
Riff A.1
|-------------------------------------------------------------------------|
|-------------------------------------------------------------------------|
|-------------------------------------------------------------------------|
|---2---0-2---2---0-2---2---0-2---2---0-2---3---2-3---3---2-3---2---0-2-2-|
|-0---0-----0---0---------------------------------------------------------|
|---------------------3---3-----3---3-----1---1-----1---1-----0---0-------|
. . . . . . . . . . . . . .
(A.1 continued)
|-----------------|
|-----------------|
|-----------------|
|-0h2p0---0-------|
|-------3---3-2-0-|
|-----------------|
.
Riff A.2
|-------------------------------------------------------------------------|
|-------------------------------------------------------------------------|
|-------------------------------------------------------------------------|
|---2---0-2---2---0-2---2---0-2---2---0-2---3---2-3---3---2-3---2---0-2-2-|
|-0---0-----0---0---------------------------------------------------------|
|---------------------3---3-----3---3-----1---1-----1---1-----0---0-------|
| . . . . . . . . . . . . . . |
| |
|-------------------------------------------------------------------------|
|-------------------------------------------------------------------------|
|---5---4-5---5---4-5---5---4-5---5---4-5---2---0-2---2---0-2-------------|
|---------------------------------------------------------------2---0-2-2-|
|-0---0-----0---0---------------------------------------------------------|
|---------------------3---3-----3---3-----1---1-----1---1-----0---0-------|
. . . . . . . . . . . . . .
(A.2 continued)
|-----------------|
|-----------------|
|-----------------|Gtrs
|-0h2p0---0-------|I&II
|-------3---3-2-0-|
|-----------------|
.
Riff C (play twice)
|-----------------------------------------------|
|-----------------------------------------------|
|-----------------------------------------------|
|-----5-----3-----2-----2-----5-----3-----2-----|
|---3-----3-----3-----3-----3-----3-----3-----3-|
|-1-----3-----5-----5-----1-----3-----5-----5---|
. . . . . . . . . . . . . . .
Riff D.1
|-----------------------------------|
|-----------------------------8-6-5-|
|-5--4--5--4-2-4--5---/7--4-5-------|Gtr
|-----------------------------------| I
|-----------------------------------|
|-----------------------------------|
| |
|-----------------------------------|
|-----------hp----------------------|
|-9--7--9--79757-9--/10--7-9-9-7-5-|Gtr
|-----------------------------------|II
|-----------------------------------|
|-----------------------------------|
Riff D.2
|-------------------------------------------|-------|
|-----------------------------------8-6-5-6-|-------|
|-5---4---5--4h5p42--4-5--/7--4-5----------|-5-(5)-|Gtr
|-------------------------------------------|-------| I
|-------------------------------------------|-------|
|-------------------------------------------|-------|
| |
|-------------------------------------------|-------|
|-------------------------------------------|-------|
|-9---7---9--7h9p75--7-9-/10--7-9--7-5-4-5-|-9-(9)-|Gtr
|-------------------------------------------|-------|II
|-------------------------------------------|-------|
|-------------------------------------------|-------|

Repeat Riff A
Repeat Riff C
Repeat Riff D
Bridge
|-----|
|-----|
|-----|
|-2-3-|
|-2-3-|
|-0-1-|
Riff E
|-----------------------------------------------------------|
|-----------------------------------------------------------|
|-----------------------------------------------------------|Gtrs
|-------------5-----------------------------5---------------|I&II
|-----7----8--3------7---875--------7----8--3------7---875--|
|-5-5---555-5----5-5---55---6~--5-5---555-5----5-5---55---6-|
. . ... . . . ..... . . ... . . . ......
Riff E cont.
|-------------------------------------------------------------------|
|-------------------------------------------------------------------|
|-------------------------------------------------------------------|Gtrs
|-------------5-----------------------------5--------*------------*-|I&II
|-----7----8--3------7---875--------7----8--3------7---8757p5-------|
|-5-5---555-5----5-5---55---6~--5-5---555-5----5-5---55------8-5685-|
. . ... . . . ..... . . ... . . . ..... . ....
NOTE: All notes from asterik to asterik
are played in equal time
Riff F (play twice under keyboard solo)
|-----------------------------------------------|
|-----------------------------------------------|
|--------------------7------------------------2-|
|--------------------7-7--------------------2-2-|
|--------------------5-7--------------------2-0-|
|-2-22222-22222-2222---5-2-22222-22222-2222-0---|
. ..... ..... .... . ..... ..... ....
Repeat Riff E 2x
Bridge
|---------|
|---------|
|-9-7-(7)-|
|-9-7-(7)-|
|---------|
|---------|
Riff F (play twice)
|-------------------------------------------------------------|
|-------------------------------------------------------------|
|------14------13------11------11/13---14------13-11/1311~---|Gtr
|-------14------14------12--------------14---14-12/1412~---| I
|--0-------0-------0-------0-------0-------0----------------|
|-------------------------------------------------------------|
| . . . . . |
| |
|-------------------------------------------------------------|
|-------------------------------------------------------------|
|----2-(2)----------------------------------------------------|Gtr
|--2-(2)----------------------------------------------------|II
|--0-(0)----------------------------------------------------|
|-------------------------------------------------------------|
Riff G
|-----------------------------------------------------------------|
|-----------------------------------------------------------------|
|---14------13------11------11/13---14------13-11/1311~----------|Gtrs
|------14------14------12--------------14---14-12/1412~----------|I&II
|-0-------0-------0-------0-------0-------0-----------------------|
|-----------------------------------------------------------------|
| . . . . . |
| |
|-------------------------------10-9h10p9-------------------------|
|---14------12------10----10-12-----------10----------------------|
|------14------13------11--------------------9--------------------|Gtr
|----------------------------------------------11~--12-11-9-11-12-|III
|-0-------0-------0-----------------------------------------------|
|-----------------------------------------------------------------|
. . . .
|-----------------------------------------------------------------|
|-----------------------------------------------------------------|
|---14------13------11------11/13---14------13-11/1311~----------|Gtrs
|------14------14------12--------------14---14-12/1412~----------|I&II
|-0-------0-------0-------0-------0-------0-----------------------|
|-----------------------------------------------------------------|
| . . . . . |
| |
|-------------------------------10-9h10p9-------------------------|
|---14------12------10----10-12-----------10----------------------|
|------14------13------11--------------------9-----------14-13-14-|Gtr
|----------------------------------------------11~-12-14----------|III
|-0-------0-------0-----------------------------------------------|
|-----------------------------------------------------------------|
|-----------------------------------------------------------------|
|-----------------------------------------------------------------|
|---14------13------11------11/13---14------13-11/1311~----------|Gtrs
|------14------14------12--------------14---14-12/1412~----------|I&II
|-0-------0-------0-------0-------0-------0-----------------------|
|-----------------------------------------------------------------|
| . . . . . |
| |
|-----------------------------------------------------------------|
|-----------------------------------------------------------------|
|-----------------------------------------------------------------|Gtr
|-14~~----------------------12-11-7~~-----------------------------|III
|-----------------------------------------------------------------|
|-----------------------------------------------------------------|
|-----------------------------------------------------------------|
|-----------------------------------------------------------------|
|---14------13------11------11/13---14------13-11/1311~----------|Gtrs
|------14------14------12--------------14---14-12/1412~----------|I&II
|-0-------0-------0-------0-------0-------0-----------------------|
|-----------------------------------------------------------------|
. . . . .
Riff H.1
|--------------------------------------------------------|
|--------------------------------------------------------|
|-14--14--------14--14----14---14--14-------14--14-------|Gtrs
|-14--14--------12--12----11---11--11-------14--14-------|I&II
|---------0-0-0---------0----0--------0-0-0--------0-0-0-|
|--------------------------------------------------------|
| . . . . . . . . . . . |
| |
|--------------------------------------------------------|
|--------------------------------------------------------|
|--------------------------------------------------------|Gtr
|-/14--14-14-12-11-12--12-12-11-9-11--7--42-2~----------|III
|--------------------------------------------------------|
|--------------------------------------------------------|
Riff H.2
|----------------------------------------------------------------|
|----------------------------------------------------------------|
|--------------------7-(7)----------9-(9)------------------------|Gtrs
|-4-(4)--------------7-(7)----------9-(9)------------------------|I&II
|-4-(4)--------------5-(5)----------7-(7)------------------------|
|-2-(2)----------------------------------------------------------|
| |
|--------------------------------------|-------------------------|
|--------------------------------------|-12-12-14-15-14-12h14p12-|
|----------------------------14----13~-|-13-13-14-16-14-13h14p13-|Gtr
|-2-2-2/4-4-4/7-7-7/11-11-11----11-----|-------------------------|III
|--------------------------------------|-(Two-different-guitars)-|
|--------------------------------------|-------------------------|
Repeat Riff H.1
Riff H.3
|------------------------------------------------------------------------|
|------------------------------------------------------------------------|
|--------------------7-(7)----------9-(9)--------------(9)---------------|Gtrs
|-4-(4)--------------7-(7)----------9-(9)--------------(9)---------------|I&II
|-4-(4)--------------5-(5)----------7-(7)--------------(7)---------------|
|-2-(2)------------------------------------------------------------------|
| |
|--------------------------------------|-------------------------|-------|
|--------------------------------------|-12-12-14-15-14-12h14p12-|-14-15-|
|----------------------------14----13~-|-13-13-14-16-14-13h14p13-|-------|Gtr
|-2-2-2/4-4-4/7-7-7/11-11-11----11-----|-------------------------|-------|III
|--------------------------------------|-(Two-different-guitars)-|-------|
|--------------------------------------|-------------------------|-------|
Riff H.4
|-----------------------------------------------------------------|
|-----------------------------------------------------------------|
|---14------13------11------11/13---14------13-11/1311~----------|Gtrs
|------14------14------12--------------14---14-12/1412~----------|I&II
|-0-------0-------0-------0-------0-------0-----------------------|
|-----------------------------------------------------------------|
| . . . . . |
| |
|-------------------------------------------------17-16-17~~------|
|--------------------------14-15-17~~-----------------------------|
|-14~-(14)--------------------------------------------------------|Gtr
|-----------------------------------------------------------------|III
|-----------------------------------------------------------------|
|-----------------------------------------------------------------|
NOTE: A fourth guitar plays what guitar III plays, just delayed
by a fraction of a second or so.
|----------------------------------------------------------------------|
|----------------------------------------------------------------------|
|---14------13------11------13------14------13-11/1311~---------------|Gtrs
|------14------14------12------14------14---14-12/1412~---2-----------|I&II
|-0-------0-------0-------0-------0-------0------------------5-4-2-----|
|------------------------------------------------------------------5-4-|
. . . . . . . . . . .
Riff I (played under Solo I)
|----------------------------------------|
|----------------------------------------|
|-2----11--------------2----11----7------|
|-2----11----5----2----2----11----7----2-|
|-0-----9----5----2----0-----9----5----2-|
|------------3----0--------------------0-|
|------------------------------------------------------|
|------------------------------------------------------|
|-2----11--------------2----11----7--------------------|
|-2----11----5----2----2----11----7----2---------------|
|-0-----9----5----2----0-----9----5----2---------------|
|------------3----0--------------------0-0-0-0-0-0-0-0-|
. . . . . . .
Solo I (played over Riff I)
|-------------------------------------------------------------|
|------------10-9h10p9----------------------------------------|
|--------6-9-----------11~~----7-7-9-9h11-9~-7-6-7-6h7p64----|
|----6h7---------------------------------------------------7~-|
|-0-----------------------------------------------------------|
|-------------------------------------------------------------|
|---------9-10-9h10p9--------------------------------|
|---10-12-------------12-10~~----10-10-12-12/14-12~~-|
|-9--------------------------------------------------|
|----------------------------------------------------|
|----------------------------------------------------|
|----------------------------------------------------|
|----------17-16-14~~----14-14-16-17/19~--19bfr-(19)p17-19bf-|
|----14-17---------------------------------------------------|
|-14---------------------------------------------------------|
|------------------------------------------------------------|
|------------------------------------------------------------|
|------------------------------------------------------------|
|-19bfr-17-19-17-16-17~--1917161716--16----------------------------------------|
|----------------------------------19--19171917151715--15----------------------|
|----------------------------------------------------18--1814-16bf--16p14-14bf-|
|------------------------------------------------------------------------------|
|------------------------------------------------------------------------------|
|------------------------------------------------------------------------------|
Repeat Riff E
Repeat Riff F
Repeat Riff E
Riff J (played twice under Solo II)
|----------------------------------------|
|----------------------------------------|
|-2----11--------------2----11----7------|
|-2----11----5----2----2----11----7----2-|
|-0-----9----5----2----0-----9----5----2-|
|------------3----0--------------------0-|
|----------------------------------------|
|----------------------------------------|
|-2----11--------------2----11----7------|
|-2----11----5----2----2----11----7----2-|
|-0-----9----5----2----0-----9----5----2-|
|------------3----0-00-----------------0-|
..
NOTE: The two palm mutes in Riff J are
not played on repeat
Solo II (transcribed by Mike O'Neil)
|---------------------------------------------------------------|
|------------10-9h10p9------------------------------------------|
|--------6-9-----------11~---11-11h13-13-13/14-14-14/16-/18-18~-|
|----6h7--------------------------------------------------------|
|-0-------------------------------------------------------------|
|---------------------------------------------------------------|
|---------------------------------12-14-16-17~-----/19-19~------|
|-15---------------------12-14-15-------------------------------|
|----18-16-14---11-13-14----------------------------------------|
|---------------------------------------------------------------|
|---------------------------------------------------------------|
|---------------------------------------------------------------|
|-19fb-rp17h19fb~----21-19-17-16---16h17p16-14h16p14-12h14p12-|
|-*------------------**-----------------------------------------|
|---------------------------------------------------------------|
|---------------------------------------------------------------|
|---------------------------------------------------------------|
|---------------------------------------------------------------|
* Hold bend, then...release, pull off, hammer on, bend again
** Keep holding the previous bend and pick it again instead of
playing the 21, and then the 19 is upon release of the bend
|----------------------------------------------17-16-17---------|
|-15-17-15-14-15-14-12h14p12-12fb--12fb-10~-------------17~-----|
|---------------------------------------------------------------|
|---------------------------------------------------------------|
|---------------------------------------------------------------|
|---------------------------------------------------------------|
|-17-16-17-/19--17--19--19bfr--17-16----------------------------|
|------------------------------------17-------------------------|
|---------------------------------------16-14-13-14-14~---------|
|---------------------------------------------------------------|
|---------------------------------------------------------------|
|---------------------------------------------------------------|
|-----------------------------------------|-19bfr-19~--17-16-17-|
|-----------------------------------------|---------------------|
|-14-13h14-9~---9-9p7---------------------|---------------------|
|---------------------7~------------------|---------------------|
|-----------------------------------------|---------------------|
|-----------------------------------------|---------------------|
Repeat this bar 5x
Check out The Ultimate In Flames tribute at:
http://www.in-flames.com




Ваше мнение



Капча