Tune to D

Left Guitar:
E------------------5----------6---------6----|
B-------8---------------------8-------8-8-8--|
G-----7---7------7---7------7---7-----7---7--|
D--0----------4----------5---------5---------|
A--------------------------------------------|
E--------------------------------------------|
E------------------5----------5---------6----|
B-------8-------------------------------8-8--|
G-----7---7------7---7------7---7-----7------| Two Times
D--0----------4----------5---------5---------|
A--------------------------------------------|
E--------------------------------------------|
E------------------5----------5------6----|
B-------8----------------------------8----|
G-----7---7------7---7------7---7----7----|
D--0----------4----------5-----------5----|
A-----------------------------------------|
E-----------------------------------------|
Right Guitar:
- The picking movement is from the lower string to the upper.
E--10---8----8--|--6--5--3--6--3/--|
B--10--10---10--|--8---------------|
G--11--11--------------| Two Times
D----------------------|
A----------------------|
E----------------------|
E--10---8----8---|--6--5--6~--|
B--10--10---10---|--8---------|
G--11--11---------|
D-----------------|
A-----------------|
E-----------------|

Left Guitar:
- Let ring the A minor and the D minor chords during the playing
2x
E-------------0------|
B--1--0-1---0---1----|
G--2------2-------2--|
D--2-----------------|
A--0-----------------|
E--------------------|

2x Right Guitar
E--1--0-1-----3------| E---------10---8--10-------------|
B--3------3-----3----| B--10--8------10------10--8--10--|
G--2--------2-----2--| G--------------------------------|
D--0-----------------| D--------------------------------|
A--------------------| A--------------------------------|
E--------------------| E--------------------------------|
Repeat two times

Left Guitar Right Guitar
E---1-------| E--------------|
B---3---1---| B---10~---5~---|
G---2---2---| G--------------|
D---0---2---| D--------------|
A-------0---| A--------------|
E-----------| E--------------|




Ваше мнение



Капча