#----------------------------------PLEASE NOTE---------------------------------#
#This file is the author's own work and represents their interpretation of the #
#song. You may only use this file for private study, scholarship, or research. #
#------------------------------------------------------------------------------#
IN FLAMES - The Jester's Dance (BASS)
From the Album Jesters Race
Transcribed by: Emil Bygde
mail: [email protected]

. - palm mute / - slide up to
- slide down to ~ - vibrato
h - hammer on b - bend
p - pull off Suffixes for bend
ph - pinch harmonic
f - full bend h - half bend
* - see comment r - release t - tap bend
X - percussion mute ~ - vibrato bend
@ - slight palm mute () - ghost note, sustained note
This is one of the few In Flames tabs that actually is tabbed for a
5-string,
this beacuse im tired to tune down my bass, and figured i might not be the
only one...
Riff A (0:00)
|--------------------------------------------------------------------|
|--------------------------------------------------------------------|
|--------------------------------------------------------------------|
|--1---1-1-1---1-1-1---1-1-1---1-1----------------------------------| x4
|----------------------------------2---2-2-2---2-2/4---4-4-4---4-4---|
Riff B (0:22)
|--------------------------------------------------------------------|
|--------------------------------------------------------------------|
|--------------------------------------------------------------------|
|--1---1-1-1---1-1--------------------------------------------------| x4
|------------------2---2-2-2---2-2/4---4-4-4---4-4-4---4-4-4----4-4--|
Riff C (0:43)
|-------------------------------------------------------|
|-------------------------------------------------------|
|----------------------------------------------0---0-1--|
|--3~--4~---------------------4~---3~----1---1---1------|
|----------1~--2~-----2~--4~---------------4------------|
Riff D (0:50)
|-------------------------------------|
|-------------------------------------|
|-------------------------------------|
|-1111111111111111/-------------------| x2
|------------------22222222/44444444--|
Riff A x2 (1:00)
Riff E (1:11)
|-------------------------------------------|
|-------------------------------------------|
|-------------------------------------------|
|--------------------------------4~--1~-----| x4
|-----4~--1~--2~-----------2~--4/-----------|
Riff A x? (1:33)
At this time play Riff A until the song fades out, I think it's about 5-6
times.
Or else, you (and you're band?) can come up with your own ending.




Ваше мнение



Капча