Band Name: In Flames
Album: Whoracle
Song: The Gyroscope
tabbed by Martijn Wietsma
Intro: part (1)
1st guitar:
|----------------------------|-----------------------------|
|--------4-6-4---6-----------|-------4-6-4---6-------------|
|--5-7-----------------------|--5-7------------------------|
|----------------------------|-----------------------------|
|----------------------------|-----------------------------|
|----------------------------|-----------------------------|
|----------------------------|-----------------------------|
|------------4-6-4---6-------|-------4-6-4-6-4-6-7-6-4-6---|
|--5-7-8-7-------------------|--5-7------------------------|
|----------------------------|-----------------------------|
|----------------------------|-----------------------------|
|----------------------------|-----------------------------|
2nd guitar is missing (if you know it mail me)
Part (2)
1st guitar:
|----------------------------|
|----------------------------|
|--2h3-4h6---10-8-10---(/15)-|
|----------------------------|
|----------------------------|
|----------------------------|
2nd guitar plays:
|---------------6~-----------|
|-----7-----7-------7--------|
|--5-----5-------------------|
|----------------------------|
|----------------------------|
|----------------------------| repeat this 4x
part (3)
|----------------------------|-----------------------------|
|----------------------------|-----------------------------|
|----------------------------|-----------------------------|
|--2-2-3-2-2h3---3h2---2-----|--2-2-3-2-3/5-5/3/2----------|
|--4-4-5-4-4h5---5h4---4-----|--4-4-5-4-5/7-7/5/4----------|
|----------------------------|-----------------------------|

|----------------------------|-----------------------------|
|----------------------------|-----------------------------|
|----------------------------|-----------------------------|
|--2-2-3-2-2h3---3h2---2-----|--2-2-3-2-3/5-5/7-5/3/2------|
|--4-4-5-4-4h5---5h4---4-----|--4-4-5-4-5/7-7/9-7/5/4------|
|----------------------------|-----------------------------|
repeat 2x
Part (4)
|----------------------------|-----------------------------|
|----------------------------|-----------------------------|
|--3-5-6-5-3-5---------------|--5-6-5-6-5-3-5-3-5----------|
|----------------------------|-----------------------------|
|----------------------------|-----------------------------|
|----------------------------|-----------------------------|
repeat this 2x
Part (5)
|----------------------------|-----------------------------|
|----------------------------|-----------------------------|
|--2-2-3-2---2h3-3p2---2-----|--6-5-6-5----3-2-------------|
|----------------------------|-----------------------------|
|----------------------------|-----------------------------|
|----------------------------|-----------------------------|
repeat this 2x
repeat part (4) 2x
Part (6)
|----------------------------|-----------------------------|
|--9-8h9---6h8-6-8-6-(8h6)---|--9-8h9---6h8-6-8-6-(8h6)----|
|----------------------------|-----------------------------|
|----------------------------|-----------------------------|
|----------------------------|-----------------------------|
|----------------------------|-----------------------------|
Part (7)
|----------------------------|
|--3-6---8-8-6-3-6---8-8-6---|
|----------------------------|
|----------------------------|
|----------------------------|
|----------------------------|
Repeat part (5) 4x
Part (8)
|----------------------------|
|--7-9/10-9-7---7-9/10-9-7-11|
|----------------------------|
|----------------------------|
|----------------------------|
|----------------------------| repeat this 2x

Part (9)
|----------------------------|-----------------------------|
|----------------------------|-----------------------------|
|--7-9-10-9-7-9--------------|--7-9-10-9-10-9-10-12-10-----|
|----------------------------|-----------------------------|
|----------------------------|-----------------------------|
|----------------------------|-----------------------------|
1st guitar:
|----------------------------|
|----------------------------|
|-7-9-10-9~-7~---------------|
|--------------7-5-----------|
|--------------5-3-----------|
|----------------------------|
2nd guitar plays at same time (acoustic)
|---------0----------0-------|
|------6-----6----6----6-----|
|----8----------8------------|
|----------------------------|
|----------------------------|
|----------------------------| repeat this 4x
repeat Part (5) 2x
repeat Part (4) 2x
repeat Part (5) till end of the song
Enjoy!!
h = hammer
/ = slide
p = pick
~ = pull string up
Questions, opinions ; mail to [email protected]
Visit imagica.net:4000 on telnet, become a vampire and join the Army of Darkness and Death.




Ваше мнение



Капча