Author/Artist: IN FLAMES
Title: Stand Ablaze
Album: LUNAR STRAIN (Subterranean)
Transcribed by: Black Noise
Email: [email protected]
Ver. 1.1 (00/04/02)
‹LЌ†‚Мђа–ѕ
h : ѓnѓ“ѓ}ѓЉѓ“ѓO p : ѓvѓЉѓ“ѓO
s : ѓXѓ‰ѓCѓh g : ѓOѓЉѓX
x(n) : n‰с–Ъ‚НЉ‡ЊК‚М‚Щ‚¤‚р’e‚ў‚Д‚­‚ѕ‚і‚ў
Tuning : 1 down
*** time - 0:44
Part_A
2 times Repeat
#||---------------------------------------|--------------------------------------|
#||---------------------------------------|--------------------------------------|
#||o--7-7-7-7--10101010-8-8-8-8--7-7-7-7--|--5-5-5-5--8-8-8-8--7-7-7-7--5-5-5-5--|
#||o--------------------------------------|--------------------------------------|
#||---------------------------------------|--------------------------------------|
#||---------------------------------------|--------------------------------------|
|| 1 2 3 4 | 1 2 3 4 |
|| | |
|| | |
#||---------------------------------------|--------------------------------------|
#||---------------------------------------|--------------------------------------|
#||o--7---7----7---7----------------------|--------------------------------------|
#||o--5---5----5---5----9---9----9---9----|--10--10---10--10---7---7----7---7----|
#||---------------------7---7----7---7----|--8---8----8---8----5---5----5---5----|
#||---------------------------------------|--------------------------------------|
1 2 3 4 1 2 3 4
________________
|1.
|--------------------------------------|---------------------------------------||
|--------------------------------------|---------------------------------------||
|--3-3-3-3--7-7-7-7--5-5-5-5--3-3-3-3--|--3-3-3-3--3-3-5-5--2-2-2-2--2-2-2-2--o||
|--------------------------------------|--------------------------------------o||
|--------------------------------------|---------------------------------------||
|--------------------------------------|---------------------------------------||
| 1 2 3 4 | 1 2 3 4 ||
| | ||
| | ||
|--------------------------------------|---------------------------------------||
|--------------------------------------|---------------------------------------||
|--------------------------------------|--------------------------------------o||
|--8---8----8---8----8---8----8---8----|--7---7----7---7----7---7----7---7----o||
|--6---6----6---6----6---6----6---6----|--5---5----5---5----5---5----5---5-----||
|--------------------------------------|---------------------------------------||
1 2 3 4 1 2 3 4
________________
|2.
|---------------------------------------|#
|---------------------------------------|#
|--3-3-3-3--3-3-5-5--2-2-2-2--2-2-2-2---|#
|---------------------------------------|#
|---------------------------------------|#
|---------------------------------------|#
| 1 2 3 4 |
| |
| |
|---------------------------------------|#
|---------------------------------------|#
|---------------------------------------|#
|--4---4----4---4----7---5----7---4-----|#
|--5---5----5---5-----------------------|#
|---------------------------------------|#
1 2 3 4 (End of Part_A)

*** time - 0:56
Part_B
2 times Repeat
#||---------------------------------------|------10---8h10p8--------------8--------|
#||------------------------------8---7----|--8--------|=|==|-11--10--11-------10---|
#||o---------------7----6---7-------------|-------------3--------------------------|
#||o--5---4----5--------------------------|----------------------------------------|
#||---------------------------------------|----------------------------------------|
#||---------------------------------------|----------------------------------------|
|| 1 2 3 4 | 1 2 3 4 |
|| | |
|| | |
#||---------------------------------------|----------------------------------------|
#||---------------------------------------|----------------------------------------|
#||o--3-3-3-3-----------3-3-3-3-----------|--3-3-3-3----------------------2-2-2-2--|
#||o-----------0-0-0-0-----------0-0-0-0--|-----------0-0-0-0----5-5-5-5-----------|
#||---------------------------------------|----------------------------------------|
#||---------------------------------------|----------------------------------------|
|| 1 2 3 4 | 1 2 3 4 |
|| | |
|| | |
#||---------------------------------------|----------------------------------------|
#||---------------------------------------|----------------------------------------|
#||o--3-3-3-3-----------3-3-3-3-----------|--3-3-3-3-------------3-3-3-3--5-5-5-5--|
#||o-----------0-0-0-0-----------0-0-0-0--|-----------0-0-0-0----------------------|
#||---------------------------------------|----------------------------------------|
#||---------------------------------------|----------------------------------------|
1 2 3 4 1 2 3 4
_______________
|1.
|--------------------------------------|-----------------------------------------||
|---------------8----10----------------|--------------------------3--------------||
|--10--------------------10---7--------|------------------------|=|=|-----------o||
|---------------------------------7----|---------------5----7---5h7p5------7----o||
|--------------------------------------|--8----------------------------8---------||
|--------------------------------------|-----------------------------------------||
| 1 2 3 4 | 1 2 3 4 ||
| | ||
| | ||
|--------------------------------------|-----------------------------------------||
|--------------------------------------|-----------------------------------------||
|--2-2-2-2-----------2-2-2-2-----------|--2-2-2-2----------------------2-2-2-2--o||
|-----------0-0-0-0-----------0-0-0-0--|-----------0-0-0-0--4-4-4-4-------------o||
|--------------------------------------|-----------------------------------------||
|--------------------------------------|-----------------------------------------||
| 1 2 3 4 | 1 2 3 4 ||
| | ||
| | ||
|--------------------------------------|-----------------------------------------||
|--------------------------------------|-----------------------------------------||
|--2-2-2-2-----------2-2-2-2-----------|--2-2-2-2-----------2-2-2-2----5-5-5-5--o||
|-----------0-0-0-0-----------0-0-0-0--|-----------0-0-0-0----------------------o||
|--------------------------------------|-----------------------------------------||
|--------------------------------------|-----------------------------------------||
1 2 3 4 1 2 3 4
________________
|2.
|---------------------------------------|#
|---------------------------------------|#
|---------------------------------------|#
|---------------5----7-----------------|#
|--8------------------------------------|#
|---------------------------------------|#
| 1 2 3 4 |
| |
| |
|---------------------------------------|#
|---------------------------------------|#
|--2-2-2-2------------------------------|#
|-----------0-0-0-0--4------------------|#
|---------------------------------------|#
|---------------------------------------|#
| 1 2 3 4 |
| |
| |
|---------------------------------------|#
|---------------------------------------|#
|--2-2-2-2-----------2------------------|#
|-----------0-0-0-0---------------------|#
|---------------------------------------|#
|---------------------------------------|#
1 2 3 4 (End of Part_B)

*** time - 1:07
Part_C
2 times Repeat
#||---------------------------------------|--------------------------------------|
#||---------------------------------------|--------------------------------------|
#||o--7-7-7-7--7-7-7-7--5-5-5-5--5-5-5-5--|------------------o-/-----------------|
#||o--5-5-5-5--5-5-5-5--5-5-5-5--5-5-5-5--|-------------------/-o----------------|
#||---------------------------------------|--------------------------------------|
#||---------------------------------------|--------------------------------------|
|| 1 2 3 4 | 1 2 3 4 |
|| | |
|| | |
#||---------------------------------------|--------------------------------------|
#||---------------------------------------|--------------------------------------|
#||o--3-3-3-3-----------3-3-3-3-----------|--3-3-3-3-----------3-3-3-3--5-5-5-5--|
#||o-----------0-0-0-0-----------0-0-0-0--|-----------0-0-0-0--------------------|
#||---------------------------------------|--------------------------------------|
#||---------------------------------------|--------------------------------------|
1 2 3 4 1 2 3 4
_______________
|1.
|--------------------------------------|---------------------------------------||
|--------------------------------------|---------------------------------------||
|--5-5-5-5--5-5-5-5--5-5-5-5--5-5-5-5--|----------------o-/-------------------o||
|--7-7-7-7--7-7-7-7--7-7-7-7--7-7-7-7--|-----------------/-o------------------o||
|--------------------------------------|---------------------------------------||
|--------------------------------------|---------------------------------------||
| 1 2 3 4 1 2 3 4 ||
| ||
| ||
|--------------------------------------|---------------------------------------||
|--------------------------------------|---------------------------------------||
|--2-2-2-2-----------2-2-2-2-----------|--2-2-2-2-----------2-2-2-2--5-5-5-5--o||
|-----------0-0-0-0-----------0-0-0-0--|-----------0-0-0-0--------------------o||
|--------------------------------------|---------------------------------------||
|--------------------------------------|---------------------------------------||
1 2 3 4 1 2 3 4
_______________
|2.
|--------------------------------------|---------------------------------------|#
|--------------------------------------|---------------------------------------|#
|--2-2-2-2--2-2-2-2--3-3-3-3--3-3-3-3--|--5-5-5-5--5-5-5-5--3--------5---------|#
|--3-3-3-3--3-3-3-3--5-5-5-5--5-5-5-5--|--7-7-7-7--7-7-7-7---------------------|#
|--------------------------------------|---------------------------------------|#
|--------------------------------------|---------------------------------------|#
| 1 2 3 4 1 2 3 4 |
| |
| |
|--------------------------------------|---------------------------------------|#
|--------------------------------------|---------------------------------------|#
|--2-2-2-2-----------2-2-2-2-----------|--2-2-2-2------------------------------|#
|-----------0-0-0-0-----------0-0-0-0--|-----------0-0-0-0--5--------7---------|#
|--------------------------------------|---------------------------------------|#
|--------------------------------------|---------------------------------------|#
1 2 3 4 1 2 3 4 (End of Part_C)

*** time - 1:19
Part_D
2 times Repeat
#||---------------------------------------|-------------------------------------|
#||---------------------------------------|-------------------------------------|
#||o--7--------10--8-----------------7----|--5-------8---7------------------5---|
#||o--------------------------------------|-------------------------------------|
#||---------------------------------------|-------------------------------------|
#||---------------------------------------|-------------------------------------|
|| 1 2 3 4 | 1 2 3 4 |
|| | |
|| | |
#||---------------------------------------|-------------------------------------|
#||---------------------------------------|-------------------------------------|
#||o--------------------------------------|-------------------------------------|
#||o--8--------12--10----------------8----|--7-------10--8------------------7---|
#||---------------------------------------|-------------------------------------|
#||---------------------------------------|-------------------------------------|
1 2 3 4 1 2 3 4
|--------------------------------------|--------------------------------------||#
|--------------------------------------|--------------------------------------||#
|--3--------7---5-----------------3----|--2-2-2-2--2-2-2-2--3--------5-------o||#
|--------------------------------------|-------------------------------------o||#
|--------------------------------------|--------------------------------------||#
|--------------------------------------|--------------------------------------||#
| 1 2 3 4 | 1 2 3 4 ||
| | ||
| | ||
|--------------------------------------|--------------------------------------||#
|--------------------------------------|--------------------------------------||#
|--------------------------------------|-------------------------------------o||#
|--5--------8---7-----------------5----|--4-4-4-4--4-4-4-4--5--------7-------o||#
|--------------------------------------|--------------------------------------||#
|--------------------------------------|--------------------------------------||#
1 2 3 4 1 2 3 4 (End of Part_D)

*** time - 1:55
Part_E
2 times Repeat
#|------------------------------|------------------------------|
#|------------------------------|------------------------------|
#|o--7--------------------------|------------------------------|
#|o--5--------------------------|--------------------7---------|
#|------------------------------|--------------------5---------|
#|------------------------------|------------------------------|
| 1 2 3 | 1 2 3 |
| | |
| | |
#|------------------------------|------------------------------|
#|------------------------------|------------------------------|
#|o-----------------------------|------------------------------|
#|o--5------------7----8---5----|--7---------------------------|
#|------------------------------|-----------8--------5---------|
#|------------------------------|------------------------------|
1 2 3 1 2 3
_______________
|1.
|-----------------------------|------------------------------||
|-----------------------------|------------------------------||
|-----------------------------|-----------------------------o||
|-----------------------------|-----------------------------o||
|--5--------------------------|------------------------------||
|--3--------------------------|------------------------------||
| 1 2 3 | 1 2 3 ||
| | ||
| | ||
|-----------------------------|------------------------------||
|-----------------------------|------------------------------||
|-----------------------------|--------------------7--------o||
|--5------------7----8---5----|--7--------------------------o||
|-----------------------------|------------------------------||
|-----------------------------|------------------------------||
1 2 3 1 2 3
________________
|2.
|-----------------------------|------------------------------|#
|-----------------------------|------------------------------|#
|-----------------------------|------------------------------|#
|--9-----------10-------------|--12----------------7---------|#
|--7-----------8--------------|--10----------------5---------|#
|-----------------------------|------------------------------|#
| 1 2 3 | 1 2 3 |
| | |
| | |
|-----------------------------|------------------------------|#
|-----------------------------|------------------------------|#
|--7---5----------------------|------------------------------|#
|-----------8---7----5--------|--5---------------------------|#
|------------------------8----|--------------------5---------|#
|-----------------------------|------------------------------|#
1 2 3 1 2 3 (End of Part_E)

*** time - 2:04
Part_F
2 times Repeat
#|------------------------------|------------------------------|
#|------------------------------|------------------------------|
#|o-----------------------------|------------------------------|
#|o--8------------10---12--8----|--10--------------------------|
#|------------------------------|-----------12-------8---------|
#|------------------------------|------------------------------|
| 1 2 3 | 1 2 3 |
| | |
| | |
#|------------------------------|------------------------------|
#|------------------------------|------------------------------|
#|o-----------------------------|------------------------------|
#|o--5------------7----8---5----|--7---------------------------|
#|------------------------------|-----------8--------5---------|
#|------------------------------|------------------------------|
1 2 3 1 2 3
_______________
|1.
|-----------------------------|------------------------------||
|-----------------------------|------------------------------||
|-----------------------------|--------------------10-------o||
|--8------------10---12---8---|--10-------------------------o||
|-----------------------------|------------------------------||
|-----------------------------|------------------------------||
| 1 2 3 | 1 2 3 ||
| | ||
| | ||
|-----------------------------|------------------------------||
|-----------------------------|------------------------------||
|-----------------------------|--------------------7--------o||
|--5------------7----8---5----|--7--------------------------o||
|-----------------------------|------------------------------||
|-----------------------------|------------------------------||
1 2 3 1 2 3
_______________
|2.
|-----------------------------|------------------------------|#
|-----------------------------|------------------------------|#
|-----------------------------|--------------------x2--------|#
|--8--------------------------|--8----------------(7)--------|#
|------12---10--8--------8----|--------------------8---------|#
|--------------------10-------|------------------------------|#
| 1 2 3 | 1 2 3 |
| | |
| | |
|-----------------------------|------------------------------|#
|-----------------------------|------------------------------|#
|--7---5----------------------|--------------------x2--------|#
|-----------8---7----5--------|--5----------------(4)--------|#
|------------------------8----|--------------------5---------|#
|-----------------------------|------------------------------|#
1 2 3 1 2 3 (End of Part_F)

*** time - 2:21
Part_G
2 times Repeat
#|-------------------------------|------------------------------|
#|-------------------------------|------------------------------|
#|o------------------------------|------------------------------|
#|o--8-8-8-8--8-8-1010-12128-8---|--10101010--------------------|
#|-------------------------------|-----------12121212-8-8-8-8---|
#|-------------------------------|------------------------------|
| 1 2 3 | 1 2 3 |
| | |
| | |
#|-------------------------------|------------------------------|
#|-------------------------------|------------------------------|
#|o--6-6-6-6--6-6-8-8--10106-6---|--8-8-8-8---------------------|
#|o------------------------------|-----------10101010-6-6-6-6---|
#|-------------------------------|------------------------------|
#|-------------------------------|------------------------------|
1 2 3 1 2 3
_______________
|1.
|------------------------------|-------------------------------||
|------------------------------|-------------------------------||
|------------------------------|--------------------10101010--o||
|--8-8-8-8--8-8-1010-12128-8---|--10101010-10101010-----------o||
|------------------------------|-------------------------------||
|------------------------------|-------------------------------||
| 1 2 3 | 1 2 3 ||
| | ||
| | ||
|------------------------------|-------------------------------||
|------------------------------|--------------------9-9-9-9----||
|--6-6-6-6--6-6-8-8--10106-6---|--8-8-8-8--8-8-8-8------------o||
|------------------------------|------------------------------o||
|------------------------------|-------------------------------||
|------------------------------|-------------------------------||
1 2 3 1 2 3
_______________
|2.
|-----------------------------|------------------------------|#
|-----------------------------|------------------------------|#
|-----------------------------|--------------------x2--------|#
|--8-8------------------------|--8-8-8-8--8-8-8-8-(7)--------|#
|------1212-10108-8------8-8--|--------------------8---------|#
|--------------------1010-----|------------------------------|#
| 1 2 3 | 1 2 3 |
| | |
| | |
|-----------------------------|------------------------------|#
|-----------------------------|--------------------x2--------|#
|--10108-8--6-6---------------|--6-6-6-6--6-6-6-6-(5)--------|#
|---------------1010-8-8-6-6--|--------------------6---------|#
|-----------------------------|------------------------------|#
|-----------------------------|------------------------------|#
1 2 3 1 2 3 (End of Part_G)

*** time - 2:38
Play Part_C
2 times Repeat

*** time - 2:51
Part_H
2 times Repeat
// 00/04/02 ѓѓЌ‚М‚QЏ¬ђЯ–Ъ‚М‚Q‰№–Ъ‚рЏCђі
#|---------------------------------------|-----------------------------x2-------|
#|---------------------------------------|----------------------(g11-------13)--|
#|o--7--------8---10-------8--------7----|--5--------5---7--------3--------2----|
#|o------8-------------------------------|------8-------------------------------|
#|---------------------------------------|--------------------------------------|
#|---------------------------------------|--------------------------------------|
| 1 2 3 4 | 1 2 3 4 |
| | |
| | |
#|---------------------------------------|-----------------------------x2-------|
#|---------------------------------------|----------------------(----------10)--|
#|o--7--------8---10-------8--------7----|--5--------5---7------(g12---------)--|
#|o------8-------------------------------|------8-----------------5--------4----|
#|---------------------------------------|--------------------------------------|
#|---------------------------------------|--------------------------------------|
| 1 2 3 4 | 1 2 3 4 |
| | |
| | |
#|---------------------------------------|--------------------------------------|
#|---------------------------------------|--------------------------------------|
#|o--7---7----7---7----------------------|--------------------------------------|
#|o--5---5----5---5----9---9----9---9----|--10--10---10--10---7---7----7---7----|
#|---------------------7---7----7---7----|--8---8----8---8----5---5----5---5----|
#|---------------------------------------|--------------------------------------|
1 2 3 4 1 2 3 4
________________
|1.
|--------------------------------------|---------------------------------------||
|--------------------------------------|---------------------------------------||
|--3--------------------s5--------3----|--3------------5p3--2-----------------o||
|--------------------------------------|--------------------------------------o||
|--------------------------------------|---------------------------------------||
|--------------------------------------|---------------------------------------||
| 1 2 3 4 | 1 2 3 4 ||
| | ||
| | ||
|--------------------------------------|---------------------------------------||
|--------------------------------------|---------------------------------------||
|--------------------------------------|--------------------------------------o||
|--5--------------------s7--------5----|--5------------7p5--4-----------------o||
|--------------------------------------|---------------------------------------||
|--------------------------------------|---------------------------------------||
| 1 2 3 4 | 1 2 3 4 ||
| | ||
|--------------------------------------|---------------------------------------||
|--------------------------------------|---------------------------------------||
|--------------------------------------|--------------------------------------o||
|--8---8----8---8----8---8----8---8----|--7---7----7---7----7---7----7---7----o||
|--6---6----6---6----6---6----6---6----|--5---5----5---5----5---5----5---5-----||
|--------------------------------------|---------------------------------------||
1 2 3 4 1 2 3 4
________________
|2.
|--------------------------------------|---------------------------------------|#
|--15-------------------s16-------15---|--13-----------11---10-----------------|#
|--------------------------------------|---------------------------------------|#
|--------------------------------------|---------------------------------------|#
|--------------------------------------|---------------------------------------|#
|--------------------------------------|---------------------------------------|#
| 1 2 3 4 | 1 2 3 4 |
| | |
| | |
|--------------------------------------|---------------------------------------|#
|--11-------------------s13-------11---|--10-----------8----7------------------|#
|--------------------------------------|---------------------------------------|#
|--------------------------------------|---------------------------------------|#
|--------------------------------------|---------------------------------------|#
|--------------------------------------|---------------------------------------|#
| 1 2 3 4 | 1 2 3 4 |
| | |
| | |
|--------------------------------------|---------------------------------------|#
|--------------------------------------|---------------------------------------|#
|--------------------------------------|---------------------------------------|#
|--8---8----8---8----8---8----8---8----|--7---7----7---7----7---7----7---7-----|#
|--6---6----6---6----6---6----6---6----|--5---5----5---5----5---5----5---5-----|#
|--------------------------------------|---------------------------------------|#
1 2 3 4 1 2 3 4 (End of Part_H)

*** time - 3:02
Part_I
2 times Repeat
#|---------------------------------------|--------------------------------------|
#|---6--p5--------8-------p6-------------|--10-p8--------11------p10------------|
#|o-----------7-----------------9--------|-----------10----------------12-------|
#|o--------------------------------------|--------------------------------------|
#|---------------------------------------|--------------------------------------|
#|---------------------------------------|--------------------------------------|
| 1 2 3 4 | 1 2 3 4 |
| | |
| | |
#|---------------------------------------|--------------------------------------|
#|---6--p5--------8-------p6-------------|--10-p8--------11------p10------------|
#|o-----------7-----------------9--------|-----------10----------------12-------|
#|o--------------------------------------|--------------------------------------|
#|---------------------------------------|--------------------------------------|
#|---------------------------------------|--------------------------------------|
| 1 2 3 4 | 1 2 3 4 |
| | |
| | |
#|---------------------------------------|--------------------------------------|
#|---------------------------------------|--------------------------------------|
#|o--------------------------------------|--------------------------------------|
#|o--7------------5----------------------|--------------------------------------|
#|---5------------3----------------------|--5------------8----------------------|
#|---------------------------------------|--3------------6----------------------|
1 2 3 4 1 2 3 4
|--------------------------------------|--------------------------------------||#
|--10-p8--------8-------p6-------------|------6----8---6----------------------||#
|-----------10----------------9--------|--9----------------------------------o||#
|--------------------------------------|-------------------------------------o||#
|--------------------------------------|--------------------------------------||#
|--------------------------------------|--------------------------------------||#
| 1 2 3 4 | 1 2 3 4 ||
| | ||
| | ||
|--------------------------------------|--------------------------------------||#
|--10-p8--------8-------p6-------------|--------------------------------------||#
|-----------10----------------9--------|--5---7----9---7---------------------o||#
|--------------------------------------|-------------------------------------o||#
|--------------------------------------|--------------------------------------||#
|--------------------------------------|--------------------------------------||#
| 1 2 3 4 | 1 2 3 4 ||
| | ||
| | ||
|--------------------------------------|--------------------------------------||#
|--------------------------------------|--------------------------------------||#
|--------------------------------------|-------------------------------------o||#
|--7------------5----------------------|--------x4-----7---------------------o||#
|--5------------3----------------------|--7--(7----7)--5----------------------||#
|--------------------------------------|--5--(5----5)-------------------------||#
1 2 3 4 1 2 3 4 (End of Part_I)

*** time - 3:14
Part_J
2 times Repeat
#||---------------------------------------|---------------------------------------|
#||---------------------8-8-1010-11118-8--|--------------------6-6-8-8--10106-6---|
#||o--7-7-9-9--10107-7--------------------|--5-5-7-7--9-9-5-5---------------------|
#||o--------------------------------------|---------------------------------------|
#||---------------------------------------|---------------------------------------|
#||---------------------------------------|---------------------------------------|
|| 1 2 3 4 | 1 2 3 4 |
|| | |
|| | |
#||---------------------------------------|---------------------------------------|
#||---------------------8-8-1010-11118-8--|--------------------6-6-8-8--10106-6---|
#||o--7-7-9-9--10107-7--------------------|--5-5-7-7--9-9-5-5---------------------|
#||o--------------------------------------|---------------------------------------|
#||---------------------------------------|---------------------------------------|
#||---------------------------------------|---------------------------------------|
|| 1 2 3 4 | 1 2 3 4 |
|| | |
|| | |
#||---------------------------------------|---------------------------------------|
#||---------------------------------------|---------------------------------------|
#||o--------------------------------------|---------------------------------------|
#||o--------------------------------------|---------------------------------------|
#||---5-5-5-5--5-5-5-5--------------------|--3-3-3-3--3-3-3-3---------------------|
#||---------------------3-3-3-3--3-3-3-3--|--------------------1-1-1-1--1-1-1-1---|
1 2 3 4 1 2 3 4
|--------------------------------------|---------------------------------------||#
|--10108-8--6-6------10108-8--6-6------|---------------------------------------||#
|---------------9-9---------------9-9--|--10-------9--------10-------9--------o||#
|--------------------------------------|--------------------------------------o||#
|--------------------------------------|---------------------------------------||#
|--------------------------------------|---------------------------------------||#
| 1 2 3 4 | 1 2 3 4 ||
| | ||
| | ||
|--------------------------------------|---------------------------------------||#
|--6-6---------------6-6---------------|---------------------------------------||#
|------9-9--7-7-5-5------9-9--7-7-5-5--|--7--------5--------7--------5--------o||#
|--------------------------------------|--------------------------------------o||#
|--------------------------------------|---------------------------------------||#
|--------------------------------------|---------------------------------------||#
| 1 2 3 4 | 1 2 3 4 ||
| | ||
| | ||
|--------------------------------------|---------------------------------------||#
|--------------------------------------|---------------------------------------||#
|--------------------------------------|--------------------------------------o||#
|--------------------------------------|--7--------5--------7--------5--------o||#
|--1-1-1-1--1-1-1-1--3-3-3-3--3-3-3-3--|--5--------3--------5--------3---------||#
|--------------------------------------|---------------------------------------||#
1 2 3 4 1 2 3 4 (End of Part_J)

*** time - 3:26
Play Part_I
2 times Repeat

*** time - 3:38
Part_K
4 times Repeat
#||---------------------------------------|-----------------------------------------|
#||---------------------------------------|-----------------------------------------|
#||o-----------10-p7--------9--------9----|-----------10-p7--------9--------9-------|
#||o--0---0-------------0--------0--------|--0---0-------------0--------0-----------|
#||---------------------------------------|-----------------------------------------|
#||---------------------------------------|-----------------------------------------|
|| 1 2 3 4 | 1 2 3 4 |
|| | |
|| x3,4 only | |
#||---------------------------------------|-----------------------------------------|
#||------------10-p6--------8--------8----|-----------10-p6--------8--------8-------|
#||o--------------------------------------|-----------------------------------------|
#||o--0---0-------------0--------0--------|--0---0-------------0--------0-----------|
#||---------------------------------------|-----------------------------------------|
#||---------------------------------------|-----------------------------------------|
|| 1 2 3 4 | 1 2 3 4 |
|| | |
|| | |
#||---------------------------------------|-----------------------------------------|
#||---------------------------------------|-----------------------------------------|
#||o--------------------------------------|-----------------------------------------|
#||o--7---7-------------------------------|--7---7----------------------------------|
#||---5---5-------------------------------|--5---5----------------------------------|
#||---------------------------------------|-----------------------------------------|
1 2 3 4 1 2 3 4
|--------------------------------------|------------------------------------------||#
|--------------------------------------|------------------------------------------||#
|-----------10-p7--------9--------9----|--10--9----------------------9-----------o||#
|--0---0-------------0--------0--------|-----------12--10-------10------(10)-----o||#
|--------------------------------------|--------------------12-----------x1,2,3---||#
|--------------------------------------|------------------------------------------||#
| 1 2 3 4 | 1 2 3 4 ||
| | ||
| | ||
|--------------------------------------|------------------------------------------||#
|-----------10-p6--------8--------10---|--11--10-------------------x3-only--------||#
|--------------------------------------|-----------12--10------(9----12--9)------o||#
|--0---0-------------0--------0--------|--------------------10-------------------o||#
|--------------------------------------|------------------------------------------||#
|--------------------------------------|------------------------------------------||#
| 1 2 3 4 | 1 2 3 4 ||
| | ||
| | ||
|--------------------------------------|------------------------------------------||#
|--------------------------------------|------------------------------------------||#
|--------------------------------------|-----------------------------------------o||#
|--------------------------------------|--------------------5--------------------o||#
|--5-----------------------------------|--8-----------------3---------------------||#
|--3-----------------------------------|--6---------------------------------------||#
1 2 3 4 1 2 3 4 (End of Part_K)

*** time - 4:03
Play Part_J
2 times Repeat

*** time - 4:16
Play Part_I
2 times Repeat
=== END OF TAB ==




Ваше мнение



Капча