IN FLAMES - PINBALL MAP
From the Album CLAYMAN
Copyright 2000 NUCLEAR BLAST
Version 1.0 - JANUARY 2001
Transcribed by: Mike O'Neil
For Questions, Comments, Newest Version, or Corrections contact
Mike O'Neil: at [email protected]
Check Out The Ultimate In Flames tribute at:
http://www.in-flames.com
.. - palm mute / - slide up to
- slide down to ~ - vibrato
h - hammer on b - bend
p - pull off Suffixes for bend
ph - pinch harmonic
f - full bend h - half bend
* - see comment r - release t - tap bend
X - percussion mute ~ - vibrato bend
@ - slight palm mute () - ghost note, sustained note
% - repeat previous bar twice
Tabber's Note - (I wasn't able to get the last part of the solo, so if )
(anyone has it or can figure it out, please mail it to )
(me and I will update the tab with it. Also, the palm )
(muting in this song is pretty heavy at times, so use )
(your judgement as to when you should palm mute the )
(chord or just the root note. Thanks. )
Tune to Drop A# (A#, F, A#, D#)
Riff A.1
|----------------------------------------------------------------|
|----------------------------------------------------------------|
|----------------------------------------------------------------|Gtr
|------7p5-7p5--------7p5-7p5--------7p5-7p5---------------------| I
|-0--0-----------0--0-----------0--0-----------7----7--8-8-------|
|-0--0---------3-0--0---------3-0--0---------3-7--7-7--8-8-------|
| . |
| |
|----------------------------------------------------------------|
|----------------------------------------------------------------|
|----------------------------------------------5----5--7-7-------|Gtr
|------3p2-3p2--------3p2-3p2--------3p2-3p2---2--2-2--3-3-------| II
|-0--0-----------0--0-----------0--0-----------------------------|
|-0--0---------3-0--0---------3-0--0---------3-------------------|
.
|----------------------------------------------------------------|
|----------------------------------------------------------------|
|----------------------------------------------------------------|Gtr
|------7p5-7-5--------7p5-7p5--------7p5-7p5-----------5---------| I
|-0--0-----------0--0-----------0--0-----------5----5--3---------|
|-0--0---------3-0--0---------3-0--0---------3-5--5-5------------|
| |
| |
|----------------------------------------------------------------|
|----------------------------------------------------------------|
|----------------------------------------------3--2--------------|Gtr
|------3p2-3p2--------3p2-3p2--------3p2-3p2--------3--5~--------| II
|-0--0-----------0--0-----------0--0-----------------------------|
|-0--0---------3-0--0---------3-0--0---------3-------------------|
Riff A.2
|----------------------------------------------------------------|
|----------------------------------------------------------------|
|----------------------------------------------------------------|Gtr
|------7p5-7p5--------7p5-7p5--------7p5-7p5---------------------| I
|-0--0-----------0--0-----------0--0-----------7----7--8-8-------|
|-0--0---------3-0--0---------3-0--0---------3-7--7-7--8-8-------|
| . |
| |
|----------------------------------------------------------------|
|----------------------------------------------------------------|
|----------------------------------------------5----5--7-7-------|Gtr
|------3p2-3p2--------3p2-3p2--------3p2-3p2---2--2-2--3-3-------| II
|-0--0-----------0--0-----------0--0-----------------------------|
|-0--0---------3-0--0---------3-0--0---------3-------------------|
.
|----------------------------------------------------------------------|
|----------------------------------------------------------------------|
|----------------------------------------------------------------------|Gtr
|------7p5-7p5--------7p5-7p5--------7p5-7p5-----------5---------------| I
|-0--0-----------0--0-----------0--0-----------5----5--3----1----1--3--|
|-0--0---------3-0--0---------3-0--0---------3-5--5-5-------1--1-1--3--|
| . . |
| |
|----------------------------------------------------------------------|
|----------------------------------------------------------------------|
|----------------------------------------------3--2--------------------|Gtr
|------3p2-3p2--------3p2-3p2--------3p2-3p2--------3--5~---5--3-------| II
|-0--0-----------0--0-----------0--0-----------------------------6--5~-|
|-0--0---------3-0--0---------3-0--0---------3-------------------------|
Riff B
|-------------------------------|----|-------------------------------|
|-------------------------------|----|-------------------------------|
|-------------------------------|----|-------------------------------|Gtr I
|-------------------------------|-%-|-------------------------------|and II
|-------------------------------|----|-3-3-3-3--3-3-3--3-3-3---3-3-3-|
|-0-0-0-0--0-0-0--0-0-0---0-0-0-|----|-------------------------------|
. . . . . . . . . . . . . . . . . . . . . . . . . .
|-------------------------------|----|-------------------------------|
|-------------------------------|----|-------------------------------|
|-------------------------------|----|-------------------------------|Gtr I
|-------------------------------|-%-|----------------------5--------|and II
|-------------------------------|----|-3-3-3-3--3-3-3--3-3--3--------|
|-0-0-0-0--0-0-0--0-0-0---0-0-0-|----|-------------------------------|
. . . . . . . . . . . . . . . . . . . . . .
Riff C.1
|--------------------------------------------------------------|
|--------------------------------------------------------------|
|--------------------------------------------------------------|Gtr
|----------------8-------------------------5-7-8~--7-5-7~--5---| I
|-5----8---7h8----------8---7h8---5---8--8-------------------8-|
|----0---0-----0---0-0----0------------------------------------|
| . . . . . |
| |
|--------------------------------------------------------------|
|--------------------------------------------------------------|
|--------------------------------------------------------------|Gtr
|----------------8-----------------------------5~--------------| II
|-5----8---7h8----------8---7h8---5---8--5-7-8-----8-7-8~--7-5-|
|----0---0-----0---0-0----0------------------------------------|
. . . . .
Riff C.2
|--------------------------------------------------------------|
|--------------------------------------------------------------|
|--------------------------------------------------------------|Gtr
|----------------8---------------------------------------------| I
|-5----8---7h8----------8---7h8---0----------------------------|
|----0---0-----0---0-0----0-------0---0-0-0--0-0-0--0-0-0--0-0-|
| . . . . . . . . . . . . . . . . |
| |
|--------------------------------------------------------------|
|--------------------------------------------------------------|
|--------------------------------------------------------------|Gtr
|----------------8---------------------------------------------| II
|-5----8---7h8----------8---7h8---0----------------------------|
|----0---0-----0---0-0----0-------0---0-0-0--0-0-0--0-0-0--0-0-|
. . . . . . . . . . . . . . . .
Repeat Riff C but instead of playing C.2, play this:
Riff C.3
|--------------------------------------------------------------|
|--------------------------------------------------------------|
|---------------------------------2------------(2)-------------|Gtr
|----------------8----------------2------------(2)-------------| I
|-5----8---7h8----------8---7h8---0------------(0)-------------|
|----0---0-----0---0-0----0------------------------------------|
| . . . . . |
| |
|--------------------------------------------------------------|
|--------------------------------------------------------------|
|---------------------------------2------------(2)-------------|Gtr
|----------------8----------------2------------(2)-------------| II
|-5----8---7h8----------8---7h8---0------------(0)-------------|
|----0---0-----0---0-0----0------------------------------------|
. . . . .
Riff D (chorus)
|--------------------------------------------------------|
|--------------------------------------------------------|
|-----------5----(5)----5--5--7--------------------7-----|Gtr
|-3-----3---5----(5)----5--5--7--------------7-----------| I
|-3-----3---3----(3)----3--3--5---5-5-5--5-5---5-5---5-5-|
|-3-----3------------------------------------------------|
| . . . . . . . . . |
| |
|--------------------------------------------------------|
|--------------------------------------------------------|
|-----------5----(5)----5--5--7--------------7-----10----|Gtr
|-3-----3---5----(5)----5--5--7--------------------------| II
|-3-----3---3----(3)----3--3--5---5-5-5--5-5---5-5---5-5-|
|-3-----3------------------------------------------------|
. . . . . . . . .
|--------------------------------------------------------|
|--------------------------------------------------------|
|-----------5----(5)----5--5--3--(3)--3-----5--7---(7)---|Gtr
|-3-----3---5----(5)----5--5--3--(3)--3-----5--7---(7)---| I
|-3-----3---3----(3)----3--3--1--(1)--1-----3--5---(5)---|
|-3-----3------------------------------------------------|
| |
|--------------------------------------------------------|
|--------------------------------------------------------|
|-----------5----(5)----5--5--3--(3)--3-----5--7---(7)---|Gtr
|-3-----3---5----(5)----5--5--3--(3)--3-----5--7---(7)---| II
|-3-----3---3----(3)----3--3--1--(1)--1-----3--5---(5)---|
|-3-----3------------------------------------------------|

Repeat Riff A.2
Riff E (variation of Riff B)
|-------------------------------|----|-------------------------------|
|-------------------------------|----|-------------------------------|
|-------------------------------|----|-------------------------------|Gtr I
|-------------------------------|-%-|-------------------------------|and II
|-------------------------------|----|-3-3-3-3--3-3-3--3-------------|
|-0-0-0-0--0-0-0--0-0-0---0-0-0-|----|-------------------------------|
. . . . . . . . . . . . . . . . . . . . .
|-------------------------------|----|-------------------------------|
|-------------------------------|----|-------------------------------|
|-------------------------------|----|-------------------------------|Gtr I
|-------------------------------|-%-|----------------------5--------|and II
|-------------------------------|----|-3-3-3-3--3-3-3--3-3--3--------|
|-0-0-0-0--0-0-0--0-0-0---0-0-0-|----|-------------------------------|
. . . . . . . . . . . . . . . . . . . . . .
Repeat Riff C
Repeat Riff D
Riff F
|--------------------------------------------------------|
|--------------------------------------------------------|
|-14~-14-14-12~--------10-12-10~------14-12----14~-------|Gtr
|--------------------------------------------------------| I
|--------------------------------------------------------|
|--------------------------------------------------------|
| |
|--------------------------------------------------------|
|--------------------------------------------------------|
|--------------------------------------------------------|Gtr
|-10~-10-10-9~---------7--9--7~-------10-9-----10~-------| II
|--------------------------------------------------------|
|--------------------------------------------------------|
| |
|--------------------------------------------------------|
|--------------------------------------------------------|
|-----------5----(5)----5--5--3--(3)--3-----5--7---(7)---|Gtr
|-3-----3---5----(5)----5--5--3--(3)--3-----5--7---(7)---|III
|-3-----3---3----(3)----3--3--1--(1)--1-----3--5---(5)---|
|-3-----3------------------------------------------------|
Riff G.1
|--------------------------------------------------------|
|--------------------------------------------------------|
|--------------------------------------------------------|Gtr
|--------------------------------------------------------| I
|-0---------------------------------------0--------------|
|-0---------------------------------------0--------------|
| . |
| |
|--------------------------------------------------------|
|--------------------------------------------------------|
|--------------------------------------------------------|Gtr
|--------------7----------------5------------------7-----| II
|-0---------/8---8---8---5---/7---7ph-----------/8---8---|
|-0-0-0-0-0--------0-8-0-5-0------------0-0-0-0--------0-|
. . . . . . . . . . .
G.1 continued
|-------------------------|
|-------------------------|
|-7-5-7--5---5---------pp-|Gtr
|----------8----8-7-8-875-| I
|-------------------------|
|-------------------------|
| |
|-------------------------|
|-------------------------|Gtr
|-------------------------| II
|-8-7-8--7-5-7--5---5-----|
|-----------------8---8p7-|
|-------------------------|
Riff G.2
|------------------------------------------------------|
|------------------------------------------------------|
|------------------------------------------------------|Gtr
|--------------3----------------2----------------3-----| I
|-0---------/5---5---8---5---/3---3-----------/5---5---|
|-0-0-0-0-0--------0-8-0-5-0--------0-0-0-0-0--------0-|
| . . . . . . . . . . . . . |
| |
|------------------------------------------------------|
|------------------------------------------------------|
|------------------------------------------------------|Gtr
|--------------7----------------5----------------7-----|II
|-0---------/8---8---8---5---/7---7-----------/8---8---|
|-0-0-0-0-0--------0-8-0-5-0--------0-0-0-0-0--------0-|
. . . . . . . . . . . . .
G.2 continued
|-------------------------|
|-------------------------|
|-7-5-7--5---5---------pp-|Gtr
|----------8----8-7-8-875-| I
|-------------------------|
|-------------------------|
| |
|-------------------------|
|-------------------------|Gtr
|-------------------------| II
|-8-7-8--7-5-7--5---5-----|
|-----------------8---8p7-|
|-------------------------|
Riff G.3 (heavy palm muting)
|----------------------------------------------------|
|----------------------------------------------------|
|----------------------------------------------------|Gtr
|------------------------------2---------------------| I
|---------------------------/3---3-0-----------------|
|-0-0-0-0-0-0-0-0-0-0-0-0-0--------0-0-0-0-0-0-0-0-0-|
| . . . . . . . . . . . . . . . . . . . . . |
| |
|----------------------------------------------------|
|----------------------------------------------------|
|----------------------------------------------------|Gtr
|------------------------------5---------------------| II
|---------------------------/7---7-0-----------------|
|-0-0-0-0-0-0-0-0-0-0-0-0-0--------0-0-0-0-0-0-0-0-0-|
. . . . . . . . . . . . . . . . . . . . .
G.3 continued
|-------------------------|
|-------------------------|
|-7-5-7--5---5---------pp-|Gtr
|----------8----8-7-8-875-| I
|-------------------------|
|-------------------------|
| |
|-------------------------|
|-------------------------|Gtr
|-------------------------| II
|-8-7-8--7-5-7--5---5-----|
|-----------------8---8p7-|
|-------------------------|
Riff G.4
|----------------------------------------------------|
|----------------------------------------------------|
|----------------------------------------------------|Gtr
|------------------------------2---------------------| I
|-0---0---0---0---0---0---0-/3---3---0---0---0---0---|
|-0---0---0---0---0---0---0----------0---0---0---0---|
| |
|----------------------------------------------------|
|----------------------------------------------------|
|----------------------------------------------------|Gtr
|------------------------------5---------------------| II
|---0---0---0---0---0---0---/7---7---0---0---0---0---|
|-0-0-0-0-0-0-0-0-0-0-0-0-0--------0-0-0-0-0-0-0-0-0-|
. . . . . . . . . . . .
G.4 continued
|-------------------------|
|-------------------------|
|-7-5-7--5---5---------pp-|Gtr
|----------8----8-7-8-875-| I
|-------------------------|
|-------------------------|
| |
|-------------------------|
|-------------------------|Gtr
|-------------------------| II
|-8-7-8--7-5-7--5---5-----|
|-----------------8---8p7-|
|-------------------------|
Riff H (heavy palm muting)
|-----------------------------------------------------------------|
|-----------------------------------------------------------------|
|-----------------------------------------------------------------|
|---------5-5-5-5-7-7-7-7-7-7-7-7---------5-5-5-5-3-3-5-5-7-7-7-7-|
|-3-3-3-3-3-3-3-3-5-5-5-5-5-5-5-5-3-3-3-3-3-3-3-3-1-1-3-3-5-5-5-5-|
|-3-3-3-3-------------------------3-3-3-3-------------------------|
. . . . . . . . . . . . . . . . . . . . . . . . . . . . . . . .
|-----------------------------------------------------------------|
|-----------------------------------------------------------------|
|-----------------------------------------------------------------|
|---------5-5-5-5-7-7-7-7-7-7-7-7---------5-5-5-5-3-3-5-7---------|
|-3-3-3-3-3-3-3-3-5-5-5-5-5-5-5-5-3-3-3-3-3-3-3-3-1-1-3-5---------|
|-3-3-3-3-------------------------3-3-3-3-------------------------|
. . . . . . . . . . . . . . . . . . . . . . . . . . .
Solo (play over Riff H)
|-----------------------------------------------------------------|
|----------------------------------------/15---15-17-18-17-15-17--|
|-14---14-12~----10h12fb+r---10h12--------------------------------|
|---------------------------------12~-----------------------------|
|-----------------------------------------------------------------|
|-----------------------------------------------------------------|
|----------------------------------------------17--17-15~---------|
|-------------------------------------15~-------------------------|
|-17fb+r~-----14-17-14----14-17-14-17-----------------------------|
|----------------------17-----------------------------------------|
|-----------------------------------------------------------------|
|-----------------------------------------------------------------|
|----15--17--18--20--22~-----20-----------------------------------|
|-18--------------------------------------------------------------|
|------------------------------------------INCOMPLETE-------------|
|-----------------------------------------------------------------|
|-----------------------------------------------------------------|
|-----------------------------------------------------------------|
Repeat Riff C
Repeat Riff D
Riff I (variation of Riff F)
|--------------------|-----|-------------------------------|
|--------------------|-----|-------------------------------|
|-14~-14-14-12~------|-----|-10-12-10~-----14-12----14~----|Gtr
|--------------------|-%|-------------------------------| I
|--------------------|-----|-------------------------------|
|--------------------|-----|-------------------------------|
| |
|--------------------|-----|-------------------------------|
|--------------------|-----|-------------------------------|
|--------------------|-----|-------------------------------|Gtr
|-10~-10-10-9~-------|-%|-7--9--7~------10-9-----10~----| II
|--------------------|-----|-------------------------------|
|--------------------|-----|-------------------------------|
| |
|--------------------|-----|-------------------------------|
|--------------------|-----|-------------------------------|
|-----------5----(5)-|-----|-5--5--3--(3)--3-----5--7------|Gtr
|-3-----3---5----(5)-|-%|-5--5--3--(3)--3-----5--7------|III
|-3-----3---3----(3)-|-----|-3--3--1--(1)--1-----3--5------|
|-3-----3------------|-----|-------------------------------|
Repeat Riff A
|-----|
|-----|
|-----| Gtr I
|-----| and II
|-----|
|-0-0-|
. .
I'm pretty certain that the song ends with 3 snare hits and the guitars
palm mute over the last two, but if not, then they palm mute all three.
Check Out The Ultimate In Flames tribute at:
http://www.in-flames.com




Ваше мнение



Капча