|-----------------------------------------------------------------|
|-----------------------------------------------------------------|
|-----------------------------------------------------------------|Gtrs
|-----------------5-5-5-5-7-7-7-7-------------------------7-7-7-7-|I&II
|-2-2-2-2-7-7-7-7-3-3-3-3-5-5-5-5-2-2-2-2-7-7-7-7-5-5-5-5-5-5-5-5-|
|-0-0-0-0-5-5-5-5-----------------0-0-0-0-5-5-5-5-3-3-3-3---------|
| |
|-----------------------------------------------------------------|
|-----------------------------------------------------------------|
|-----4-----2-4-5--4-2----2----------4---2------------------------|
|---5---5--------------5----4------5---5---5-4-2--4---------------|
|-----------------------------5----------------------5------------|
|-----------------------------------------------------------------|
Riff A.2
|---------------------------------------------------------------------|
|---------------------------------------------------------------------|
|---------------------------------------------------------------------|Gtrs
|-----------------5-5-5-5-7-7-7-7-------------------------7-7-7-7-----|I&II
|-2-2-2-2-7-7-7-7-3-3-3-3-5-5-5-5-2-2-2-2-7-7-7-7-5-5-5-5-5-5-5-5-7---|
|-0-0-0-0-5-5-5-5-----------------0-0-0-0-5-5-5-5-3-3-3-3-------------|
| |
|---------------------------------------------------------------------|
|---------------------------------------------------------------------|
|-----4-----2-4-5--4-2----2----------4---2----------------------------|
|---5---5--------------5----4------5---5---5-4-2--4---------------5---|
|-----------------------------5----------------------5----------------|
|---------------------------------------------------------------------|
Riff B
|-----------------------------------------------|
|-----------------------------------------------|
|-----------------------------------------------|Gtr
|----------------4h5---5h7------------4h5---4h5-| I
|---2---2---2----------------2---2--------------|
|-0-0-0-0-0-0-00-----0-----0-0-0-0-00-----0-----|
| . . . .. . . . .. . |
| |
|-----------------------------------------------|
|-----------------------------------------------|
|-----------------------------------------------|Gtr
|----------------------5--------------------7---|II
|---2---2---2----5h7---3-----2---2----5h7---5---|
|-0-0-0-0-0-0-00-----0-----0-0-0-0-00-----0-----|
. . . .. . . . .. .
|-------------------------------------------|
|-------------------------------------------|
|-------------------------------------------|Gtr
|------------4h5---5h7----------------------| I
|---2---2----------------2---2--------------|
|-0-0-0-0-00-----0-----0-0-0-0-xxxx---------|
| . . .. . . . |
| |
|-------------------------------------------|
|-------------------------------------------|
|-------------------------------------------|Gtr
|------------------5------------------------|II
|---2---2----5h7---3-----2---2--------------|
|-0-0-0-0-00-----0-----0-0-0-0-xxxx---------|
. . .. . . .
Riff C.1
|-----------------------------------------------------------------|
|-----------------------------------------------------------------|
|-12-11h12p11\9~--11-7~-----------12-11h12p11\9~--7-11~-----------|Gtr
|-----------------------------------------------------------------|I&II
|-----------------------------------------------------------------|
|-----------------------------------------------------------------|
| |
|-----------------------------------------------------------------|
|-----------------------------------------------------------------|
|-----------------------------------------------------------------|Gtr
|---------------------------------------------------4---4---4---4-|III
|---2---2---2---2---5---5---5---5---2---2---2---2-2-2-2-2-2-2-2-2-|
|-0-0-0-0-0-0-0-0-3-3-3-3-3-3-3-3-0-0-0-0-0-0-0-0-----------------|
. . . . . . . . . . . . . . . .
Riff C.2
|-----------------------------------------------------------------|
|-----------------------------------------------------------------|
|-12-11h12p11\9~--11-7~-----------12-11h12p11\9~--7-11~-----------|Gtr
|-----------------------------------------------------------------| I
|-----------------------------------------------------------------|
|-----------------------------------------------------------------|
| |
|-----------------------------------------------------------------|
|-----------------------------------------------------------------|
|-----------------------------------------------------------------|Gtr
|-9--7h9p7\5~-------7-5~------------9--7h9p7\5~---4--7~-----------|II
|-----------------------------------------------------------------|
|-----------------------------------------------------------------|
| |
|-----------------------------------------------------------------|
|-----------------------------------------------------------------|
|-----------------------------------------------------------------|Gtr
|---------------------------------------------------4---4---4---4-|III
|---2---2---2---2---5---5---5---5---2---2---2---2-2-2-2-2-2-2-2-2-|
|-0-0-0-0-0-0-0-0-3-3-3-3-3-3-3-3-0-0-0-0-0-0-0-0-----------------|
. . . . . . . . . . . . . . . .
Riff D (play twice)
|--------------------------------------|
|--------------------------------------|
|--------------------------------------|Gtrs
|-------------------4---4----5------7--|I&II
|---2---2---5---5-2-2-2-2-33-3---55-5--|
|-0-0-0-0-3-3-3-3----------------------|
. . . . . . .. ..
Riff E.1
|-----------------------------------------------------|
|-----------------------------------------------------|
|-------9-12--9h11p9--------------7/-9-\7--4-5~-------|Gtr
|----12---------------12-9~---------------------------| I
|-----------------------------------------------------|
|-----------------------------------------------------|
| |
|-----------------------------------------------------|
|-----------------------------------------------------|
|-------9-12--9h11p9--------------11/12\11-7-9~-------|Gtr
|----12---------------12-9~---------------------------|II
|-----------------------------------------------------|
|-----------------------------------------------------|
| |
|-----------------------------------------------------|
|-----------------------------------------------------|
|-----------------------------------------------------|Gtr
|-5-------------------------------7----------5-(5)----|III
|-3-------2--------------5--------5----------3-(3)----|
|---------0--------------3----------------------------|
Riff E.1 continued
|-----------------------------------------------------|
|-----------------------------------------------------|
|----9-12--9h11p9-------------------------------------|Gtr
|-12---------------12-9~--------10~-(10)--------------| I
|-----------------------------------------------------|
|-----------------------------------------------------|
| |
|-----------------------------------------------------|
|-----------------------------------------------------|
|----9-12--9h11p9---------------9~-(9)----------------|Gtr
|-12---------------12-9~------------------------------|II
|-----------------------------------------------------|
|-----------------------------------------------------|
| |
|-----------------------------------------------------|
|-----------------------------------------------------|
|-----------------------------------------------------|Gtr
|-(5)---------------------------4---------------------|III
|-(3)---2-------------5---------2--------22-2-(2)-----|
|-------0-------------3---------------------0-(0)-----|
..
Riff E.2
|-----------------------------------------------------|
|-----------------------------------------------------|
|----11-12-11h12p11---------------14/16\14--11-12~----|Gtr
|-14----------------14-12-----------------------------| I
|-------------------------14~-------------------------|
|-----------------------------------------------------|
| |
|-----------------------------------------------------|
|----17-19-17h19p17-----------------------------------|
|-19----------------19-17-16~-----17/19\17-14-16~-----|Gtr
|-----------------------------------------------------|II
|-----------------------------------------------------|
|-----------------------------------------------------|
| |
|-----------------------------------------------------|
|-----------------------------------------------------|
|-----------------------------------------------------|Gtr
|--------5------------------------7-----------5-(5)---|III
|-(2)----3----------------5-------5-----------3-(3)---|
|-(0)---------------------3---------------------------|
Riff E.2 continued
|-----------------------------------------------------|
|-----------------------------------------------------|
|----11-12-11h12p11--------------------11~-(11)-------|Gtr
|-14----------------14-12-----------------------------| I
|-------------------------14~-------------------------|
|-----------------------------------------------------|
| |
|-----------------------------------------------------|
|----17-19-17h19p17-----------------------------------|
|-19----------------19-17-16~----------14~-(14)-------|Gtr
|-----------------------------------------------------|II
|-----------------------------------------------------|
|-----------------------------------------------------|
| |
|-----------------------------------------------------|
|-----------------------------------------------------|
|-----------------------------------------------------|Gtr
|-(5)----------------------------------4--------------|III
|-(3)---2-----------------5------------2--------------|
|-------0-----------------3---------------------------|
Repeat Riff A.1
Repeat Riff A.2
Repeat Riff C.1
Riff F
|-----------------------------------------------------------------|
|-----------------------------------------------------------------|
|-12-11h12p11\9~--11-7~-----------12-11h12p11\9~--7-11~-----------|Gtr
|-----------------------------------------------------------------| I
|-----------------------------------------------------------------|
|-----------------------------------------------------------------|
| |
|-----------------------------------------------------------------|
|-----------------------------------------------------------------|
|-16-14h16p14\12~-14-12~----------16-14h16p14\12~-11-14~----------|Gtr
|-----------------------------------------------------------------|II
|-----------------------------------------------------------------|
|-----------------------------------------------------------------|
| |
|-----------------------------------------------------------------|
|-----------------------------------------------------------------|
|-----------------------------------------------------------------|Gtr
|---------------------------------------------------4---4---4---4-|III
|---2---2---2---2---5---5---5---5---2---2---2---2-2-2-2-2-2-2-2-2-|
|-0-0-0-0-0-0-0-0-3-3-3-3-3-3-3-3-0-0-0-0-0-0-0-0-----------------|
. . . . . . . . . . . . . . . .
Repeat Riff D
Repeat Riff E
Repeat Riff A.1 4x
Riff F.1 (play twice)
|-------------------------------------------------------------------|
|-------------------------------------------------------------------|
|-------------------------------------------------------------------|Gtrs
|-------------------------------------------------4-4-4-4----5----7-|I&II
|---2---2---2---2---5---5---5---5-2-2-2-2-5-5-5-5-2-2-2-2-33-3-55-5-|
|-0-0-0-0-0-0-0-0-3-3-3-3-3-3-3-3-0-0-0-0-3-3-3-3-------------------|
. . . . . . . . .. ..
Riff F.2 (play twice)
|-------------------------------------------------------------------|
|-------------------------------------------------------------------|
|-------------------------------------------------------------------|Gtrs
|-5------------------------7------5-----------------------4---------|I&II
|-3--------2-------5-------5------3-------2-------5-------2------22-|
|----------0-------3----------------------0-------3-----------------|
..
NOTE - ( The two palm muted notes at the end of F.2 )
( do not get played on the repeat )
Play untabbed solo over Riff F
Play Techno Sample
Riff H (play 8 times)
|-----------------------------------------------------------------|
|-----------------------------------------------------------------|
|-----------------------------------------------------------------|Gtrs
|---------4-4-4-4-7-7-7-7-----------------4-4-4-4-----------------|I&II
|-4-4-4-4-2-2-2-2-5-5-5-5-2-2-2-2-4-4-4-4-2-2-2-2-7-7-7-7-2-2-2-2-|
|-2-2-2-2-----------------0-0-0-0-2-2-2-2---------5-5-5-5-0-0-0-0-|
| |
|-----------------------------------------------------------------|
|-----------------------------------------------------------------|
|-----6-----4-6-7--6-4----4----------6---4------------------------|
|---7---7--------------7----6------7---7---7-6-4--6---------------|
|-----------------------------7----------------------7------------|
|-----------------------------------------------------------------|




Ваше мнение



Капча