IN FLAMES: ONLY FOR THE WEAK: Tune to C (C-F-A#-D#-G-C)

Riff A : Gs I-II
C|-----------------------------------------------------------------|
G|-----------------------------------------------------------------|
D|-----------------------------------------------------------------|
A|-----------------5-5-5-5-7-7-7-7-------------------------7-7-7-7-|
F|-2-2-2-2-7-7-7-7-3-3-3-3-5-5-5-5-2-2-2-2-7-7-7-7-5-5-5-5-5-5-5-5-|
C|-0-0-0-0-5-5-5-5-----------------0-0-0-0-5-5-5-5-3-3-3-3---------|

A|--4---2-4-5--4-2--2-------4---2-----------|
F|5---5-----------5---4---5---5---5-4-2-4---|Repeat
C|----------------------5-----------------5-|

Riff B : (GI)
A|----------------4h5---5h7------------4h5---4h5-|
F|---2---2---2----------------2---2--------------|
C|-0-0-0-0-0-0-00-----0-----0-0-0-0-00-----0-----|

(GII)
A|----------------------5--------------------7-|
F|---2---2---2----5h7---3-----2---2----5h7---5-|
C|-0-0-0-0-0-0-00-----0-----0-0-0-0-00-----0---|

(GI)
A|------------4h5---5h7--------------|
F|---2---2----------------2---2------|
C|-0-0-0-0-00-----0-----0-0-0-0-xxxx-|

(GII)
A|------------------5----------------|
F|---2---2----5h7---3-----2---2------|
C|-0-0-0-0-00-----0-----0-0-0-0-xxxx-|

Riff C
(Gs I-II)
A|-12-11h12p119~--11-7~-12-11h12p119~--7-11~-|

(GIII)
D|---------------------------------------------------4---4---4---4-|
A|---2---2---2---2---5---5---5---5---2---2---2---2-2-2-2-2-2-2-2-2-|
F|-0-0-0-0-0-0-0-0-3-3-3-3-3-3-3-3-0-0-0-0-0-0-0-0-----------------|


Riff C (GI)
D|-12-11h12p119~-11-7~-12-11h12p119~--7-11~-|

(GII)
A|-9--7h9p75~-7-5~-9-7h9p75~-4-7~-|

(GIII)
A|---------------------------------------------------4---4---4---4-|
F|---2---2---2---2---5---5---5---5---2---2---2---2-2-2-2-2-2-2-2-2-|
C|-0-0-0-0-0-0-0-0-3-3-3-3-3-3-3-3-0-0-0-0-0-0-0-0-----------------|

Riff D (GsI-II)
A|-------------------4---4----5------7--|
F|---2---2---5---5-2-2-2-2-33-3---55-5--|
C|-0-0-0-0-3-3-3-3----------------------|

Riff E.1 (GI)
D|---9-12--9h11p9--------7/-9-7--4-5~-|
A|-12--------------12-9~---------------|

(GII)
D|----9-12--9h11p9-------11/1211-7-9~-|
A|-12--------------12-9~---------------|

(GIII)
A|-5----------7---5-(5)-|
F|-3--2---5---5---3-(3)-|
C|----0---3-------------|

Riff- F -(GI)
D|----9-12--9h11p9------------------|
A|-12--------------12-9~---10~-(10)-|

(GII)
D|----9-12--9h11p9--------9~-(9)-|
A|-12--------------12-9~---------|

(GIII)
A|-(5)------4---------------|
F|-(3)--2---5---2--22-2-(2)-|
C|------0---3---------0-(0)-|

Solo- (GI)
A|----11-12-11h12p11-----------14/1614--11-12~-|
F|-14----------------14-12----------------------|
G|-------------------------14~------------------|

G|----17-19-17h19p17----------------------------|
D|-19----------------19-17-16~--17/1917-14-16~-|

(GIII)
A|------5-----7--5-(5)|
F|-(2)--3--5--5--3-(3)|
C|-(0)-----3----------|


Solo Continue- (GI)
D|----11-12-11h12p11----------11~-(11)-|
A|-14----------------14-12-------------|
F|-------------------------14~---------|

(GII)
G|----17-19-17h19p17---------------------|
D|-19----------------19-17-16~--14~-(14)-|

(GIII)
A|-(5)----------4-|
F|-(3)---2---5--2-|
C|-------0---3----|

Riff F (GI)
D|-12-11h12p119~--11-7~--12-11h12p119~--7-11~--|

(GII)
D|-16-14h16p1412~-14-12~--16-14h16p1412~-11-14~-|

(GIII)
A|---------------------------------------------------4---4---4---4-|
F|---2---2---2---2---5---5---5---5---2---2---2---2-2-2-2-2-2-2-2-2-|
C|-0-0-0-0-0-0-0-0-3-3-3-3-3-3-3-3-0-0-0-0-0-0-0-0-----------------|

Riff F.1 (GS-I-II)
A|-------------------------------------------------4-4-4-4----5----7-|
F|---2---2---2---2---5---5---5---5-2-2-2-2-5-5-5-5-2-2-2-2-33-3-55-5-|
C|-0-0-0-0-0-0-0-0-3-3-3-3-3-3-3-3-0-0-0-0-3-3-3-3-------------------|

Riff F.2 (GS-I-II)
A|-5----------7--5--------4-----|
F|-3---2---5--5--3--2--5--2--22-|
C|-----0---3--------0--3--------|

Riff H (GS-I-II)
A|---------4-4-4-4-7-7-7-7-----------------4-4-4-4-----------------|
F|-4-4-4-4-2-2-2-2-5-5-5-5-2-2-2-2-4-4-4-4-2-2-2-2-7-7-7-7-2-2-2-2-|
C|-2-2-2-2-----------------0-0-0-0-2-2-2-2---------5-5-5-5-0-0-0-0-|

G|-----6-----4-6-7--6-4----4----------6---4-------------|
D|---7---7--------------7----6------7---7---7-6-4--6----|
A|-----------------------------7----------------------7-|

End
Tabed by Nur-Karim




Ваше мнение



Капча