Legend:
The little thing in () is only played once.
~ = let ring
Intro Gtr.1
C|-------------------------------------------------------|
G|-------------------------------------------------------|
Eb|-------------------------------------------------------|
Bb|-12----8----3----10----5----5--------------------------|
F|-10----8----3-----8----5----3--------------------------|
Bb|-10----8----3-----8----5----5--------------------------|
Intro Gtr.2
C|-------------------------------------------------------------|
G|-------------------------------------------------------------|
Eb|-------------------------------------------------------------|
Bb|-12-12-15-12-12-12-14-14-12----12-12-15-12-14-17-17-15-14-15-|
F|----------------------------15-------------------------------|
Bb|-------------------------------------------------------------|
Gtr. 1
C|-----------------------------------------------------------------|
G|-----------------------------------------------------------------|
Eb|-----------------------------------------------------------------|
Bb|-----------------------------------------------------------------|
F|-0-0-0-0-0-0-0-0-0-0-0-0-0-0-0-0-3-3-3-3-3-3-3-3-3-0-0-0-0-0-0-0-|
Bb|-0-0-0-0-0-0-0-0-0-0-0-0-0-0-0-0-3-3-3-3-3-3-3-3-3-0-0-0-0-0-0-0-|
. . . . . . . . . . . . . . . . . . . . . . . . . . . . . . . .
Gtr. 2
C|----------------------------|
G|-(13P12H13)-----------------|
Eb|----------------------------|
Bb|---7P5H7----------7P5-------|
F|-------------7H8-------7H8--|
Bb|----------------------------|
Ends with
C|----------------------------------------------| |-----|
G|----------------------------------------------| x2 |-----|
Eb|----------------------------------------------| |-----|
Bb|----------------------------------------10-10-| |-0---|
F|-0--0-0--0-0--0-0--0-0--0-0-0--0-0--0-0--8--8-| |-0---|
Bb|-0--0-0--0-0--0-0?-0-0--0-0-0--0-0--0-0--8--8-| |-0---|
. . . . . . . . . . . . . . . . .
Verse
C|-----------------------------------------|
G|-----------------------------------------|
Eb|-----------------------------------------|
Bb|-----7~-7---------2~-3--5--3P2----2H3----|
F|---5~---5--X----5~------3------5~-----3~-|
Bb|-0~-----0--X--0~-------------------------|
C|-----------------------------------------|
G|-----------------------------------------|
Eb|-----------------------------------------|
Bb|-----7~-7---------2~-3-2-----------------|
F|---5~---5--X----5~-----0-5-3---3H5~------|
Bb|-0~-----0--X--0~--------------------0~---|




Ваше мнение



Капча