IN FLAMES

LORD HYPNOS

Transcribed by Jordi Rubio ([email protected])
>From the album “The Jester Race”.
Tune down two whole steps (C).

RIFF A
E-|------------------------------------------------------------------|
B-|------------------------------------------------------------------|
G-|---------2-----------------2------2-3-2------0------2-3-----------|
D-|--3-0000---00000000-3-0000---0000-----3-3333---3333---------------|
A-|------------------------------------------------------------------|
E-|------------------------------------------------------------------|
.... ........ .... .... .... ....

E-|----------------------------------|
B-|----------------------------------|
G-|--0------0------0-2---------------| Gtrs. 1 & 2
D-|--2-2222---2222-------------------|
A-|----------------------------------|
E-|----------------------------------|
.... ....

Play RIFF A two times.

RIFF B
E-|------------------------------------------------------------------|
B-|----------------------------------8--10---------------------------|
G-|--10--10p9-10~~~---10--10p9-10~~----------10--10p9-10~~-----------|
D-|------------------------------------------------------------------|
A-|------------------------------------------------------------------|
E-|------------------------------------------------------------------|
| |
| RIFF B-1 |
E-|------------------------------------------------------------------|
B-|--3------3------3-----3------3------3-----------------------------|
G-|--2---2--2---2--2--2--2---2--2---2--2--2--------------------------|
D-|--0---0--0---0--0--0--0---0--0---0--0--0--3------3------3---------|
A-|------------------------------------------3---3--3---3--3--3------|
E-|------------------------------------------1---1--1---1--1--1------|
. . . . . . . . .

(End of RIFF B)
E-|----------------------------------|
B-|-8h10-8h10p8------------8---------|
G-|-------------10-9~~-10------------| Gtr. 1
D-|----------------------------------|
A-|----------------------------------|
E-|----------------------------------|
| |
| (End of RIFF B-1) |
E-|----------------------------------|
B-|----------------------------------|
G-|--2------2------2-----------------| Gtr. 2
D-|--2---2--2---2--2--2--------------|
A-|--0---0--0---0--0--0--------------|
E-|----------------------------------|
. . .

Play RIFF B and RIFF B-1 two times

Fill 1
E-|------------------|
B-|------------------|
G-|----7~~----------|
D-|------------------|
A-|------------------|
E-|------------------|

RIFF C
E-|------------------------------------------------------------------|
B-|--3---3--3---3--3--3--3---3--3---3--3--3--------------------------|
G-|--2---2--2---2--2--2--2---2--2---2--2--2--------------------------|
D-|--0---0--0---0--0--0--0---0--0---0--0--0--3---3--3---3--3--3------|
A-|------------------------------------------3---3--3---3--3--3------|
E-|------------------------------------------1---1--1---1--1--1------|

E-|------------------------------------------------------------------|
B-|----------------------3---3--3---3--3--3--------------------------|
G-|--2---2--2---2--2--2--2---2--2---2--2--2--------------------------|
D-|--2---2--2---2--2--2--0---0--0---0--0--0--3---3--3---3--3--3------|
A-|--0---0--0---0--0--0----------------------3---3--3---3--3--3------|
E-|------------------------------------------1---1--1---1--1--1------|

E-|---------------------------------------------|
B-|---------------------------------------------|
G-|--2---2--2---2--2--2--5---5--5---5--5--5-----| Gtrs. 1 & 2
D-|--2---2--2---2--2--2--5---5--5---5--5--5-----|
A-|--0---0--0---0--0--0--3---3--3---3--3--3-----|
E-|---------------------------------------------|

Play RIFF C with Fill 1.

RIFF D
E-|------------------------------------------------------------------|
B-|------------------------------------------------------------------|
G-|------------------------------------------------------------------|
D-|--77777777-33333333-77777777-33337777-77777777-33337777-----------|
A-|------------------------------------------------------------------|
E-|------------------------------------------------------------------|
| |
| RIFF D-1 |
E-|------------------------------------------------------------------|
B-|--3------3----------3------3--------------------------------------|
G-|--2------2----------2------2--------------------------------------|
D-|--0-0000-0-00000000-0-0000-0-00000000-3------3--------------------|
A-|--------------------------------------3------3--------------------|
E-|--------------------------------------1-1111-1-11111111-----------|
.... ........ .... ........ .... ........

E-|------------------------------------------------------------------|
B-|------------------------------------------------------------------|
G-|--55555555-22222222-77777777-33333333-77777777-33337777-----------|
D-|------------------------------------------------------------------|
A-|------------------------------------------------------------------|
E-|------------------------------------------------------------------|
| |
| |
E-|------------------------------------------------------------------|
B-|--------------------3------3--------------------------------------|
G-|--2------2----------2------2--------------------------------------|
D-|--2------2----------0-0000-0-00000000-3------3--------------------|
A-|--0-0000-0-00000000-------------------3------3--------------------|
E-|--------------------------------------1-1111-1-11111111-----------|
.... ........ .... ........ .... ........

(End of RIFF D)
E-|---------------------------------------------|
B-|---------------------------------------------|
G-|---------------------------------------------| Gtr. 1
D-|--55555555-22222222-55555555-22222222--------|
A-|---------------------------------------------|
E-|---------------------------------------------|
| |
| (End of RIFF D-1) |
E-|---------------------------------------------|
B-|---------------------------------------------|
G-|--2------2----------5------5-----------------| Gtr. 2
D-|--2------2----------5------5-----------------|
A-|--0-0000-0-00000000-3-3333-3-33333333--------|
E-|---------------------------------------------|
.... ........ .... ........

Play RIFF D and RIFF D-1.
Play RIFF B and RIFF B-1 two times.
Play RIFF C with Fill 1.
Play RIFF D and RIFF D-1.

ACOUSTIC BREAK
E-|------------------------------------------------------------------|
B-|------6-5-6--------6-5-6--------6-5-6--------6-5-6----------------|
G-|----5-------5----5-------5----5-------5----5-------5--------------|
D-|------------------------------------------------------------------|
A-|--8------------8------------8------------8------------------------|
E-|------------------------------------------------------------------|

Fill 2
E-|----------------|
B-|----------------|
G-|-------2--------|
D-|-------2--------|
A-|-------0--------|
E-|----------------|

Play this ACOUSTIC BREAK followed by Fill 2 with distortion.

RIFF E
E-|------------------------------------------------------------------|
B-|------------------------------------------------------------------|
G-|---------------------------0--2------2p0----------0-2--2p0--------|
D-|--3------3p2p0-3--3p2p0-3----------------3-2--2p3----------2------|
A-|------------------------------------------------------------------|

E-|------------------------------------------------------------------|

E-|------------------------------------------------------|
B-|---------------------------------------1--3--5--6-----|
G-|---------------------------0--2-------(2--4--5--7)----| Gtrs. 1 & 2
D-|--3------3p2p0-3--3p2p0-3----(2)----------------------|
A-|------------------------------------------------------|
E-|------------------------------------------------------|

Play RIFF E two times (Guitar 2 plays notes in parentesis).

RIFF F
E-|------------------------------------------------------------------|
B-|-------------------5-6-8------------------5-6-8-------------------|
G-|-------5p4-5-7-5-7------------5p4-5-7-5-7-------------------------|
D-|--3--3-------------------3--3-------------------------------------|
A-|------------------------------------------------------------------|
E-|------------------------------------------------------------------|
| |
| RIFF F-1 |
E-|------------------------------------------------------------------|
B-|------------------------------------------------------------------|
G-|------------------------------------------------------------------|
D-|--3--3-------------------3--3-------------------------------------|
A-|--3--3-------------------3--3-------------------------------------|
E-|--1--1-------------------1--1-------------------------------------|

(End of RIFF F)
E-|--------------------------------------------------|
B-|-------------------5-6-8------------------5-6-8---|
G-|-------5p4-5-7-5-7------------5p4-5-7-5-7---------| Gtr. 1
D-|--7--7-------------------7--7---------------------|
A-|--------------------------------------------------|
E-|--------------------------------------------------|
| |
| (End of RIFF F-1) |
E-|--------------------------------------------------|
B-|--------------------------------------------------|
G-|--2----------------------2--2---------------------| Gtr. 2
D-|--2----------------------2--0---------------------|
A-|--0----------------------0--0---------------------|
E-|--------------------------------------------------|

Play RIFF F and RIFF F-1

RIFF F-2
E-|------------------------------------------------------------------|
B-|------------------------------------------------------------------|
G-|------------------------------------------2---2-----2-----2-------|
D-|--3---3-----3---3-----3---3-----3---3-----2---2-2-2-2-2-2-2-2-2---|
A-|--3---3-3-3-3---3-3-3-3---3-3-3-3---3-3-3-0---0-0-0-0-0-0-0-0-0---|
E-|--1---1-1-1-1---1-1-1-1---1-1-1-1---1-1-1-------------------------|
. . . . . . . . . . . . . .

E-|------------------------------------|
B-|------------------------------------|
G-|--2---2-----2-----2-----------------| Gtr. 2
D-|--2---2-2-2-2-2-2-2-2-2-------------|
A-|--0---0-0-0-0-0-0-0-0-0-------------|
E-|------------------------------------|
. . . . . .

Play RIFF F (sometimes with Palm Muting under the A chord) and
RIFF F-2 two times

RIFF G
E-|-----------------------------------------------------|
B-|-----------------------------------------------------|
G-|--7p6-6h7p6---7p6-6h7p6---7p6-6h7p6---7p6-6h7p6------| Gtr. 1
D-|------------7-----------7-----------7-----------7----|
A-|-----------------------------------------------------|
E-|-----------------------------------------------------|
| . . . . |
| RIFF G-1 |
E-|-----------------------------------------------------|
B-|-----------------------------------------------------|
G-|-----------------------------------------------------| Gtr. 2
D-|--------5p4---------4h5---------5p4---------4h5------|
A-|--5-----------5-----------5-----------5--------------|
E-|--3---3-----3-3---3-----3-3---3-----3-3---3-----3----|
. . . . . . . .

Play RIFF G and RIFF G-1

RIFF H
E-|---------------------------------------------|
B-|---------------------------------------------|
G-|--7--6--7-/9--7--9-/11--9h11p9--7--9--7--6---| Gtr. 1
D-|---------------------------------------------|
A-|---------------------------------------------|
E-|---------------------------------------------|
| |
| RIFF H-1 |
E-|---------------------------------------------|
B-|---------------------------------------------|
G-|--4--------2--------7------------------------| Gtr. 2
D-|--4--------2--------7--------------7---------|
A-|--2--------0--------5--------------7---------|
E-|-----------------------------------5---------|

Play RIFF H and RIFF H-1
Play RIFF G and RIFF G-1
Play RIFF H and RIFF H-1 two times
Play RIFF A two times, first time with Fill 1.

RIFF I
E-|------------------------------------------------------------------|
B-|-------------------8------6----8----------------------------------|
G-|--5------7----8---------------------7------9----6-----------------|
D-|------------------------------------------------------------------|
A-|------------------------------------------------------------------|
E-|------------------------------------------------------------------|
| |
| RIFF I-1 |
E-|------------------------------------------------------------------|
B-|------------------------------------------------------------------|
G-|--5------5----5----5------5----5----4------4----4-----------------|
D-|--5------5----5----5------5----5----4------4----4-----------------|
A-|--3-3333-3-33-3-33-3-3333-3-33-3-33-2-2222-2-22-2-22--------------|
E-|------------------------------------------------------------------|
.... .. .. .... .. .. .... .. ..

(End of RIFF I)
E-|-------------------------|
B-|-------------------------|
G-|--7------9----6----------| Gtr. 1
D-|-------------------------|
A-|-------------------------|
E-|-------------------------|
| |
| (End of RIFF I-1) |
E-|-------------------------|
B-|-------------------------|
G-|--4------4----4----------| Gtr. 2
D-|--4------4----4----------|
A-|--2-2222-2-22-2-22-------|
E-|-------------------------|

Play RIFF I and RIFF I-1

RIFF I-2
E-|---------------------8------6-------------------------------------|
B-|-------------------8---8--6---6-8---------------------------------|
G-|--5------7----8---------------------7------9----6-----------------|
D-|------------------------------------------------------------------|
A-|------------------------------------------------------------------|
E-|------------------------------------------------------------------|

E-|-------------------------|
B-|-------------------------|
G-|--7------9----6----------| Gtr. 1
D-|-------------------------|
A-|-------------------------|
E-|-------------------------|

Play RIFF I-2 and RIFF I-1
Play RIFF C
Play RIFF B two times, RIFF D and RIFF D-1, all togheter
Play RIFF A with Fill 1

ENDING RIFF
E-|------------------------------------------------------------------|
B-|------------------------------------------------------------------|
G-|---------2-----------------2------2-3-2------0------2-3-----------|
D-|--3-0000---00000000-3-0000---0000-----3-3333---3333---------------|
A-|------------------------------------------------------------------|
E-|------------------------------------------------------------------|

E-|----------------------------------|
B-|----------------------------------|
G-|--0------0------0-----------------| Gtrs. 1 & 2
D-|--2-2222-2-2222-2-----------------|
A-|----------------------------------|
E-|----------------------------------|

Play this Ending RIFF.

Well, I think it`s so good, I cannot do it better.
Please send me comments, corrections or whatever else at [email protected]
Any comment will be very appreciated.




Ваше мнение



Капча