Jotun (live in japan 2000)
Sungmin Bae
bass


D#||----------------------|----------------------|----------------------|-------------------|----------------------|----------------------|
A#||----------------------|----------------------|----------------------|-------------------|----------------------|----------------------|
F ||--7-------------------|-------------5--------|--7-------------------|--5----------------|--7-------------------|-------------5--------|
C ||---------7--8------8--|--5----5--5-----------|---------7--8------8--|-------------------|---------7--8------8--|--5----5--5-----------|

----------------------|-------------------|----------------------|--------------------|---------------------|------------------|------------------|
----------------------|-------------------|----------------------|--------------------|---------------------|------------------|------------------|
--7-------------------|--5----------------|----------------------|--------------------|---------5-----------|------------------|------------------|
---------7--8------8--|-------------------|--0------2----3----3--|--5------8----------|--8-------------0----|------------------|------------------|

----------------------------------|----------------------------------|----------------------|-----------------------|
----------------------------------|----------------------------------|----------------------|-----------------------|
----------------------------------|----------------------------------|----------------------|-----------------------|
--0-0-0-0-0-0-0-0-0-0-0-0-0-0-0-0-|--7-7-7-7-7-7-7-7-7-7-7-7-7-7-7-7-|--0------3----5----7--|--8----8--7----7--7----|

----------------------------------|----------------------------------|----------------------|-----------------------|-----------------------|
----------------------------------|----------------------------------|----------------------|-----------------------|-----------------------|
----------------------------------|----------------------------------|----------------------|-----------------------|--7-7-7-7-7------------|
--0-0-0-0-0-0-0-0-0-0-0-0-0-0-0-0-|--7-7-7-7-7-7-7-7-7-7-7-7-7-7-7-7-|--0------3----5----7--|--8----8--7----7--7----|-----------------------|

-------------------------------|----------------------|-----------------------|-----------------------|-------------------------------|
-------------------------------|----------------------|-----------------------|-----------------------|-------------------------------|
--2-2-2-2-2----2-2-2-2-2-2-2-2-|----------------------|-----------------------|--7-7-7-7-7------------|--2-2-2-2-2----2-2-2-2-2-2-2-2-|
-------------------------------|--0------3----5----7--|--8----8--7----7--7----|-----------------------|-------------------------------|

----------------------|-----------------------|----------------------------------|----------------------------------|----------------------|
----------------------|-----------------------|----------------------------------|----------------------------------|----------------------|
----------------------|-----------------------|----------------------------------|----------------------------------|----------------------|
--0------3----5----7--|--8----8--7----7--7----|--0-0-0-0-0-0-0-0-0-0-0-0-0-0-0-0-|--7-7-7-7-7-7-7-7-7-7-7-7-7-7-7-7-|--0------3----5----7--|

-----------------------|----------------------------------|----------------------------------|----------------------|-----------------------|
-----------------------|----------------------------------|----------------------------------|----------------------|-----------------------|
-----------------------|----------------------------------|----------------------------------|----------------------|-----------------------|
--8----8--7----7--7----|--0-0-0-0-0-0-0-0-0-0-0-0-0-0-0-0-|--7-7-7-7-7-7-7-7-7-7-7-7-7-7-7-7-|--0------3----5----7--|--8----8--7----7--7----|

--------------------|--------------------|--------------------|--------------------|--------------------|--------------------|--------------------|
--------------------|--------------------|--------------------|--------------------|--------------------|--------------------|--------------------|
--------------------|--5-----------------|---------5----------|--3-----------------|--------------------|--5-----------------|---------5----------|
--0------7----------|---------5----------|--3-----------------|---------0----------|--0------7----------|---------5----------|--3-----------------|

--------------------|----------------------|-------------------------|--------------------------|------------------------|--------------------------|
--------------------|----------------------|-------------------------|-----------------4-----5--|------------------------|--------------------------|
--3-----------------|--7----7------5----7--|-------------------------|--7-----7-----------------|--------------3----5----|--7-----7--------5-----7--|
---------0----------|----------------------|----0--0--0--0--0--0--0--|-----0-----0--0-----0-----|--0--0--0--0------------|-----0-----0--0-----0-----|

--------------------------|--------------------------|------------------------|--------------------------|--------------------------|
--------------------------|-----------------4-----5--|------------------------|--------------------------|--------------------------|
--------------------------|--7-----7-----------------|--------------3----5----|--------------------------|--------------------------|
--0--0--0--0--0--0--0--0--|-----0-----0--0-----0-----|--0--0--0--0------------|--3--3--3--3--3--3--3--3--|--3--3--3--3--3--3--3--3--|

--------------------------|--------------------------|--------------------------|--------------------------|--------------------------|
--------------------------|--------------------------|--------------------------|--------------------------|--------------------------|
--------------------------|--------------------------|--------------------------|--------------------------|--------------------------|
--3--3--3--3--3--3--3--3--|--3--3--5--6--7--6--5--3--|--3--3--3--3--3--3--3--3--|--3--3--3--3--3--3--3--3--|--3--3--3--3--3--3--3--3--|

--------------------------|--------------------------|--------------------------|--------------------------|------------------------|
--------------------------|--------------------------|--------------------------|-----------------4-----5--|------------------------|
--------------------------|--7-----7--------5-----7--|--------------------------|--7-----7-----------------|--------------3----5----|
--3--3--5--6--7--6--5--3--|-----0-----0--0-----0-----|--0--0--0--0--0--0--0--0--|-----0-----0--0-----0-----|--0--0--0--0------------|

--------------------------|--------------------------|--------------------------|------------------------|----------------------------------|
--------------------------|--------------------------|-----------------4-----5--|------------------------|----------------------------------|
--7-----7--------5-----7--|--------------------------|--7-----7-----------------|--------------3----5----|----------------------------------|
-----0-----0--0-----0-----|--0--0--0--0--0--0--0--0--|-----0-----0--0-----0-----|--0--0--0--0------------|--0-0-0-0-0-0-0-0-0-0-0-0-0-0-0-0-|

----------------------------------|----------------------|-----------------------|----------------------------------|
----------------------------------|----------------------|-----------------------|----------------------------------|
----------------------------------|----------------------|-----------------------|----------------------------------|
--7-7-7-7-7-7-7-7-7-7-7-7-7-7-7-7-|--0------3----5----7--|--8----8--7----7--7----|--0-0-0-0-0-0-0-0-0-0-0-0-0-0-0-0-|

----------------------------------|----------------------|-----------------------|-----------------------|-------------------------------|
----------------------------------|----------------------|-----------------------|-----------------------|-------------------------------|
----------------------------------|----------------------|-----------------------|--7-7-7-7-7------------|--2-2-2-2-2----2-2-2-2-2-2-2-2-|
--7-7-7-7-7-7-7-7-7-7-7-7-7-7-7-7-|--0------3----5----7--|--8----8--7----7--7----|-----------------------|-------------------------------|

----------------------|-----------------------|-----------------------|-------------------------------|----------------------|-----------------------|
----------------------|-----------------------|-----------------------|-------------------------------|----------------------|-----------------------|
----------------------|-----------------------|--7-7-7-7-7------------|--2-2-2-2-2----2-2-2-2-2-2-2-2-|----------------------|-----------------------|
--0------3----5----7--|--8----8--7----7--7----|-----------------------|-------------------------------|--0------3----5----7--|--8----8--7----7--7----|

----------------------------------|----------------------------------|----------------------|-----------------------|
----------------------------------|----------------------------------|----------------------|-----------------------|
----------------------------------|----------------------------------|----------------------|-----------------------|
--0-0-0-0-0-0-0-0-0-0-0-0-0-0-0-0-|--7-7-7-7-7-7-7-7-7-7-7-7-7-7-7-7-|--0------3----5----7--|--8----8--7----7--7----|

----------------------------------|----------------------------------|----------------------|-----------------------|--------------------|
----------------------------------|----------------------------------|----------------------|-----------------------|--------------------|
----------------------------------|----------------------------------|----------------------|-----------------------|--------------------|
--0-0-0-0-0-0-0-0-0-0-0-0-0-0-0-0-|--7-7-7-7-7-7-7-7-7-7-7-7-7-7-7-7-|--0------3----5----7--|--8----8--7----7--7----|--0------7----------|

--------------------|--------------------|--------------------|--------------------|--------------------|--------------------|--------------------|
--------------------|--------------------|--------------------|--------------------|--------------------|--------------------|--------------------|
--5-----------------|---------5----------|--3-----------------|--------------------|--5-----------------|---------5----------|--3-----------------|
---------5----------|--3-----------------|---------0----------|--0------7----------|---------5----------|--3-----------------|---------0----------|

--------------------|--------------------|--------------------|--------------------|--------------------|--------------------|--------------------|
--------------------|--------------------|--------------------|--------------------|--------------------|--------------------|--------------------|
--------------------|--5-----------------|---------5----------|--3-----------------|--------------------|--5-----------------|---------5----------|
--0------7----------|---------5----------|--3-----------------|---------0----------|--0------7----------|---------5----------|--3-----------------|

--------------------|------------------------------|------------------------------|------------------------------|------------------------------|
--------------------|------------------------------|------------------------------|------------------------------|------------------------------|
--3-----------------|------------------------------|------------------------------|------------------------------|--5--5-5-5--5-5-5--5-5-5--5-5-|
---------0----------|--0--0-0-0--0-0-0--0-0-0--0-0-|--3--3-3-3--3-3-3--3-3-3--3-3-|--7--7-7-7--7-7-7--7-7-7--7-7-|------------------------------|

------------------------------|------------------------------|------------------------------|------------------------------|--------------------|
------------------------------|------------------------------|------------------------------|------------------------------|--------------------|
------------------------------|------------------------------|------------------------------|------------------------------|--------------------|
--0--0-0-0--0-0-0--0-0-0--0-0-|--3--3-3-3--3-3-3--3-3-3--3-3-|--7--7-7-7--7-7-7--7-7-7--7-7-|--8--8-8-8--8-8-8--8-8-8--8-8-|--0------7----------|

--------------------|--------------------|--------------------|--------------------|--------------------|--------------------|--------------------|
--------------------|--------------------|--------------------|--------------------|--------------------|--------------------|--------------------|
--5-----------------|---------5----------|--3-----------------|--------------------|--5-----------------|---------5----------|--3-----------------|
---------5----------|--3-----------------|---------0----------|--0------7----------|---------5----------|--3-----------------|---------0----------|

--------------------------|--------------------------|--------------------------|--------------------------|--------------------------|
--------------------------|--------------------------|--------------------------|--------------------------|--------------------------|
--------------------------|--------------5--5--5--5--|--------------------------|--5--5--5--5--5--5--5--5--|--------------------------|
--0--0--0--0--8--8--8--8--|--5--5--5--5--------------|--0--0--0--0--8--8--8--8--|--------------------------|--0--0--0--0--8--8--8--8--|

--------------------------|--------------------------|--------------------------|----------------------|--------------------|---------------------||
--------------------------|--------------------------|--------------------------|----------------------|--------------------|---------------------||
--------------5--5--5--5--|--------------------------|--5--5--5--5--5--5--5--5--|----------------------|--------------------|---------5-----------||
--5--5--5--5--------------|--0--0--0--0--8--8--8--8--|--------------------------|--0------2----3----3--|--5------8----------|--8-------------0----||




Ваше мнение



Капча