BAND:In Flames
SONG:Gyroscope
ALBUM:Whoracle
C Tuning
Riff A.1 h p h p
|-----------7-5-7-5-----------7-5-7-5---|
|-5--5--------------8---8-7-------------|
|------4--------------5-----7-----------|Gtr I
|---------------------------------------|
|---------------------------------------|
|---------------------------------------|
| |
|--------------------------------h-p----|
|-5--5----7/8-7-----5---8-7---8-7-8-7---|
|------4--------------5-----7-----------|
|---------------------------------------|Gtr II
|---------------------------------------|
|---------------------------------------|
|---------------------------------------|
Riff A.2 h p
|------------7--5-7-5---------5---------|
|-5--5----------------8---8-7----8----7-|
|------4----------------5---------------|Gtr I
|---------------------------------------|
|---------------------------------------|
|---------------------------------------|
| |
|----------------h-p-p-----------h-p----|
|-5--5-----7/8--7-8-7-5-5-8-7-7-5-7-5---|
|------4------------------------------7-|Gtr II
|---------------------------------------|
|---------------------------------------|
|---------------------------------------|
Repeat Riff A.1 (1 Time)

Riff A.3 h p
|------------7--5-7-5---------5-----------|
|-5--5----------------8---8-7----8-----7--|
|------4----------------5-----------------|Gtr I
|-----------------------------------------|
|-----------------------------------------|
|-----------------------------------------|
| |
|---------------------------------h-p-----|
|-5--5-----7/8--7-----5-5-8-7-7--5-7-5----|
|------4-------------------------------7--|Gtr II
|-----------------------------------------|
|-----------------------------------------|
|-----------------------------------------|

Riff B
|---5---3h5------|
|-----3-----3----|
|----------------|Gtr I
|-0-----------0--|
|----------------|
|----------------|
| |
|----------------|
|---3---1h3------|
|-----2-----2----|Gtr II
|-0-----------0--|
|----------------|
|----------------|
Repeat Riff B (3 Times)
Riff C
|-------------------------------------------------------------|
|-------------------------------------------------------------|
|------------------0-0----------------------------0-0---------|Gtr I
|-------5-4h5p4----2---4---/5-4--------5-4h5p4----2---4-4-2-4-|
|-7--77---------7--3-----5-------7--77---------7--3-----------|
|-0--00------------------3-------0--00------------------------|
| .. . .. |
|-------------------------------------------------------------|
|-------------------------------------------------------------|
|------------------0-0----------------------------0-0---------|Gtr II
|-------9-7h9p7----2---4---/9-7--------9-7h9p7----2---4-4-2-0-|
|-7--77---------10-3-----5-------7--77---------10-3-----------|
|-0--00------------------3-------0--00------------------------|
| .. .. |
|-------------------------------------------------------------|
|-------------------------------------------------------------|
|------------------0-0-0--------------------------------------|Gtr III
|------------------2-2-2--------------------------------------|
|-7--77--7--7--7---3-3-3--------------------------------------|
|-0--00--0--0--0----------------------------------------------|
.. . . .
Riff D (Riff C is played in the background)
|---------------------------------------------------------|
|---------------------------------------------------------|
|--~----------------------------2-------------------------|
|--2---2-2-5--4------5-----2--5--------5------------------|
|----------------------------------------5----------------|
|-----------------------------------3---------------------|
| |
|---------------------------------------------------------|
|--------------h-p----------------------------------------|
|--~-------4--2-4-2-------------2-------------------------|
|--2---2-2-----------5-----5--5--------5------------------|
|----------------------------------------5----------------|
|----------------------------------/3---------------------|
|---------------------------------------------------------|
|----------------------------3----------------------------|
|--~----------h-p---------------5-4-2---------------------|
|--2---2-2-5-4-5-4---2----5-----------0--2----------------|
|---------------------------------------------------------|
|---------------------------------------------------------|
| |
|---------------------------------------------------------|
|--------------h-p-----------4----------------------------|
|--~-------4--2-4-2-------------5-4-2-5-------------------|
|--2---2-2-----------5----5--------------2----------------|
|---------------------------------------------------------|
|---------------------------------------------------------|
*
*don't know which gtr has right note (0 or 5)
Riff D
|-----------------------------------------------------------|
|-----------------------------------------------------------|
|---------------------------------------------4-4444--------|
|-9-9-9-9-----7----hpp-9---9--7---hpp--9-9999-4-4444-9-9999-|
|-7-7-7-7-7-9---109109-7---7----109109-7-7777-2-2222-7-7777-|
|-0-0-0-0--------------0---0-----------0-0000--------0-0000-|
| |
|-----------------------------------------------------------|
|-----------------------------------------------------------|
|-----------------hpp-------------hpp---------4-4444--------|
|-9-9-9-9---7-10-91097-9---9--10-91097-9-9999-4-4444-9-9999-|
|-7-7-7-7-7------------7---7-----------7-7777-2-2222-7-7777-|
|-0-0-0-0--------------0---0-----------0-0000--------0-0000-|
Repeat Riff D
Repeat Riff E
Riff F.1
|-------------------------------------------------------------------|
|---------hp-----------hp----------5-555----------------hp----------|
|-5--555-454-----4-5--454------457--------4-------4-5--454------457-|Gtr
|------------5------------7--57---------------5------------7-457----| I
|--------------7--------------------------------7-------------------|
|-------------------------------------------------------------------|
| |
|-------------------------------------------------------------------|
|----------------------hp------------------hp-----------hp----------|
|-5--555-4-------4-5--454------457-5-555--454-----4-5--454------457-|Gtr
|------------5------------7--57---------------5------------7-457----| II
|--------------7--------------------------------7-------------------|
|-------------------------------------------------------------------|
Riff F.2
|----------------*--------------------------------|
|-8----(8)--10fb+r-8--------8---(8)---10fb+r-/15~-|
|-----------------------7-------------------------|Gtr I
|-------------------------------------------------|
|-------------------------------------------------|
|-------------------------------------------------|
| |
|----------------*----------------------------7~--|
|-5----(5)---7hb+r-5--------5---(5)---7hb+r-------|
|-----------------------4-------------------------|Gtr II
|-------------------------------------------------|
|-------------------------------------------------|
|-------------------------------------------------|
| |
|-------------------------------------------------|
|-------------------------------------------------|
|-5----------9--------------5----7----9-----------|Gtr III
|-5----------9--------------5----7----9-----------|
|-3----------7--------------3----5----7-----------|
|-------------------------------------------------|
*vibrate note quickly after release
Repeat Riff F.2 (1 Time)
Repeat Riff C
Riff F.3
|---------------------h--p--------------------------10~-|
|-8---(8)--/10--12--10-12-10-8-----8--(8)--10-12-10-----|
|-------------------------------7-----------------------|Gtr I
|-------------------------------------------------------|
|-------------------------------------------------------|
|-------------------------------------------------------|
| |
|---------------*------------------------------------7~-|
|-5---(5)---7hb+r------------5-----5--(5)--7hb+r--------|
|-------------------------------4-----------------------|Gtr II
|-------------------------------------------------------|
|-------------------------------------------------------|
|-------------------------------------------------------|
| |
|-------------------------------------------------------|
|-------------------------------------------------------|
|-5---------9-----------------------5--7--9-------------|Gtr III
|-5---------9-----------------------5--7--9-------------|
|-3---------7-----------------------3--5--7-------------|
|-------------------------------------------------------|
Repeat Riff F.3 (1 Time)
Riff G
|-----------------------------------------------------------|
|------------------------------------------------------hp---|
|--------------------hp-----------4-4-444-2-------2-4-242---|Gtr I
|-5--555-4-----4-5--454------457--------------4-----------5-|
|----------5------------7--57-------------------5-----------|
|------------7----------------------------------------------|
| |
|-----------------------------------------------------------|
|-----------------------------------------------------------|
|--------------------hp--------------------hp----------hp---|Gtr II
|-5--555-4-----4-5--454------457--5---555-454-----4-5-454---|
|----------5------------7--57-----------------5-----------7-|
|------------7----------------------------------7-----------|
| |
|-----------------------------------------------------------|
|-----------------------------------------------------------|
|--------4-----7--------2-----------------4-------7-------2-|Gtr III
|-2------4-----7--------2---------2-------4-------7-------2-|
|-2------2-----5--------0---------2-------2-------5-------0-|
|-0-------------------------------0-------------------------|
|--------------------------------------------------------|
|----------5--------------/7-----------------------------|
|--------------7---4---7-------7------7/9-9-----(9)------|Gtr I
|--2-2---------------------------------------------------|
|--------------------------------------------------------|
|--------------------------------------------------------|
| |
|--------------------------5-----------------------------|
|----------8---7-------7-------7------7/8-8-----(8)------|
|------------------7-------------------------------------|Gtr II
|---457--------------------------------------------------|
|-57-----------------------------------------------------|
|--------------------------------------------------------|
| |
|--------------------------------------------------------|
|--------------------------------------------------------|
|----------------------4-------5--------------------7--9-|Gtr III
|----------2---5-------4-------5--------------------7--9-|
|----------2---5-------2-------3--------------------5--7-|
|----------0---3-----------------------------------------|
Repeat Riff C
Repeat Riff D
Repeat Riff E====




Ваше мнение



Капча