BAND:In Flames
SONG:Episode 666
ALBUM:Whoracle
Drop C Tuning:
(0:04)
|--------|-------------|
|-GUITAR-|-------------|
|-(REST)-|-3-3-5-5-5-7-|
|--------|-------------|
.
Verse (0:06)
|---------------------------------------|
|---------------------------------------|
|--2--3--7----77-5----55--3-3-5-5-5-7---|
|----------00------00-------------------| x4 (Leave out the C the last time)
. . . .. . .. .
Pre-Chorus (0:29)
|----------------------------------------|
|----------------------------------------|
|--3-3--5-7-77777777--3-3--5-2-22222222--|
|----------------------------------------| x2
. .
Verse x4 (0:41)
Pre-Chorus x2 (1:04)
Chorus I (1:16)
|-----------------------------------------|
|-----------------------------------------|
|--7-777-7--5-555-5--2-222-2--3-3--5-5-5--|
|-----------------------------------------| x4 (And end with a C the last time)
. ... . . ... . . ... .
(1:40) (1:42) Guitar Solo I (1:43)
|--------|-----------|-----------------------------------|
|-GUITAR-|--(DRUMS)--|-----------------------------------|
|-(REST)-|-----------|-----------------------3-3--5-5-5--|
|--------|--0-0-0-0~-|--0-0-0-0-0-0-0-0-0-0--------------| x2
Guitar Solo II (1:54)
|--------------------------------------------------------------|
|--------------------------------------------------------------|
|--7-7-7-7-7-7-73--3-3-3-3-3-3/4--4-4-4-4-4-4/5--5-5-5-5-5-5--|
|--------------------------------------------------------------| x2
Chorus I x1 (2:06)
(2:12) (2:16) (2:17)
|-------------------------------|--------|-----------|
|-------------------------------|-GUITAR-|-----------|
|--7-777-7--5-555-5--2-222-2--3-|-(REST)-|---3-3--5--|
|-------------------------------|--------|-----------|
. ... . . ... . . ... . . . . .
Chorus II (2:19)
|-----------------------------------------------|
|-----------------------------------------------|
|--5-555-5-5--3-333-3-3------------------3-3-3--|
|------------------------5-555-5-5--6-6---------| x2
. ... . . . ... . . . ... . . . . . . .
(2:31)
|--------------------------------------------------------------------|
|--------------------------------------------------------------------|
|--------------------------------------------------------------------|
|--0-000-000-000-000-000-000-000-005-555-555-555-555-555-555-555-55--| x2
Pre-Chorus x4 (2:42)
Chorus I x4 (3:06)
Verse x2 (3:30)
(3:41)
|--------|
|--------|
|--7-7--|
|--------|
. .




Ваше мнение



Капча