/---------------------------------------------------------------------------/
/ The following is the author's own interpretation of the song, to be /
/ used for private use and studying /
/---------------------------------------------------------------------------/
IN FLAMES - EMBODY THE INVISIBLE
From the Album COLONY
Copyright 1999 Nuclear Blast
Version 2.0 - SEPTEMBER 2000
Transcription Done By: Eric!!!!!
For Questions, Comments, Corrections, or Newest Version;
please contact Jeremy at [email protected]
Check Out Death Warp, With More Transcriptions On It:
http://www.sorrowsend.com/DeathWarp/
Tuning = C (All Strings down 2 Steps)
Intro Riff
|---------------------|
|---------------------|
|-Pick scrape-towards-|Gtr I
|-lower frets---------|
|---------------------|
|---------------------|
| |
|---------------------|
|---------------------|
|---------------------|Gtr II
|---------------------|
|--slow slide---------|
|-3----/----12--------|
Riff A.1
|-------------------------------------------------------|
|--8--7~------------------------------------------------|
|--------7--9--7------------------------------------7~--|Gtrs I
|-----------------10--9~--7-9-10-9-7-9----------7-9-----| & II
|--------------------------------------10---10----------|
|-------------------------------------------------------|
| |
|-------------------------------------------------------|
|-------------------------------------------------------|
|-------------------------------------------------------|Gtr III
|--2---4--4--5--5---------------------9--9---5--5---7---|
|--2---2--2--3--3-----5-------9-9-9---7--7---3--3---5---|
|--0---------------0--3-------7-7-7---------------------|
|-------------------------------------------------------|
|--8--7~------------------------------------------------|
|---------7--9--7---------------------------------------|Gtrs I
|------------------10--9~--7-9-10-9-7-9---------7-------| & II
|---------------------------------------10---10---10-9~-|
|-------------------------------------------------------|
| |
|-------------------------------------------------------|
|-------------------------------------------------------|
|-------------------------------------------------------|Gtr III
|--2---4--4--5--5---------------------9--9---5--5---7---|
|--2---2--2--3--3-----5-------9-9-9---7--7---3--3---5---|
|--0---------------0--3-------7-7-7---------------------|
Riff A.2 (Play Overtop Riff A.1)
|--/7--5--------hp--------------------------------------|
|---------7--8-787--5--------------------------------7~-|
|----------------------7~--------------------444-5-4----|Gtr I
|--------------------------45-7--5-4-5------------------|
|---------------------------------------7---------------|
|-------------------------------------------------------|
|--/7--5--------hp--------------------------------------|
|---------7--8-787--5-----------------------------------|
|----------------------7~--------------------444-5-4----|Gtr I
|--------------------------45-7--5-4-5---------------7~-|
|---------------------------------------7---------------|
|-------------------------------------------------------|
Riff B.1
|------------------------------------------------|
|------------------------------------------------|
|--------------------------------------------hph-|Gtr I
|-----------------------------------------5-4545-|
|-----7---5/7----7-------7------5-------5--------|
|-0-0---------0------0-0----0-3---3-5/7----------|
| . . . . . |
| |
|------------------------------------------------|
|------------------------------------------------|
|------------------------------------------------|Gtr II
|-----5---4/5----5-------5-------------------hph-|
|-------------------------------5-------5-7-5757-|
|-0-0---------0------0-0----0-3---3-5/7----------|
. . . . .
Repeat Riff B.1 (1 Time)
Repeat Riff A.1 (1 Time)
Repeat Riff B.1 (1 Time)
Riff B.2
|--------------------------------------------|
|--------------------------------------------|
|--------------------------------------------|Gtr I
|-----------------------------------------5--|
|-----7---5/7----7-------7------5-------5----|
|-0-0---------0------0-0----0-3---3-5/7------|
| . . . . . |
| |
|--------------------------------------------|
|--------------------------------------------|
|--------------------------------------------|Gtr II
|-----5---4/5----5-------5-------------------|
|-------------------------------5-------5-7--|
|-0-0---------0------0-0----0-3---3-5/7------|
. . . . .
Riff C.1
|-----------------------------------------------------------------------|
|--------------hp--------------------------------hp---------hp----------|
|---------2-4-242-----------2-4-2-----------0-2-020------4-242----2-----|Gtr
|-----4-5---------5-----4-5-------5-----2-4---------4----------5----4-5-| I
|-2-----------------2---------------------------------------------------|
|-----------------------------------0-----------------0-----------------|
| |
|-----------------------------------------------------------------------|
|----------------------------------------------------------3------------|
|-----------------------------------------2-4-5-4-2----------5-4-5-2-4--|Gtr
|---------------------------7-7-7-------5-------------------------------|II
|-9---9-95-5-5---9---9-9---5-5-5---2-----------------------------------|
|-7---7-73-3-3---7---7-7-----------0-----------------0-----------------|
|-------------------------------------------------------------------|
|--------------hp----------------hp---------------------------------|
|---------2-4-242-----------2-4-242---------------------------------|Gtr I
|-----4-5---------5-----4-5---------5--5---4---2-----5-5---7--7-7---|
|-2-----------------2------------------3---2---0--5--3-3-0-5--5-5---|
|-------------------------------------------------3-----------------|
| |
|-------------------------------------------------------------------|
|-------------------------------------------------------------------|
|-------------------------------------------------------------------|Gtr II
|---------------------------7-7-7------5---4---2-----5-5---7--7-7---|
|-9---9-95-5-5---9---9-9---5-5-5------3---2---0--5--3-3-0-9--9-9---|
|-7---7-73-3-3---7---7-7-------------------------3-----------------|
| |
|-------------------------------------------------------------------|
|-------------------------------------------------------------------|
|------------------------------Gtr III-5---4---2--0-----------------|Gtrs
|------------------------------Gtr IV--7---5---4--2--5-5---7--7-7---| III
|-------------------------------------------------------------------| IV
|-------------------------------------------------------------------|
Riff C.2
|--------------------------------|
|--------------------------------|
|--------------------------------|Gtr I
|-4-4-4-4-4-4-4-4-2---(2)--------|
|-4-4-4-4-4-4-4-4-2---(2)--------|
|-2-2-2-2-2-2-2-2-0---(0)--------|
| |
|--------------------------------|
|--------------------------------|
|--------------------------------|Gtr II
|-4-4-4-4-4-4-4-4-9------9---9---|
|-4-4-4-4-4-4-4-4-7------7---7---|
|-2-2-2-2-2-2-2-2-0----0-0-0-0---|
Riff D
|------------------------------------------------------------------------|
|------------------------------------------------------------------------|
|-5---5---4---4---7---7---5---5---5---5---9----9----10-------------------|
|---7---7---5---5---9---9---7---7---7---7---10---10----12-9-10-9--9-12-9-|
|------------------------------------------------------------------------|
|------------------------------------------------------------------------|
| |
|------------------------------------------------------------------------|
|------------------------------------------------------------------------|
|-5---5---4---4-4-7---7---5---5---5---5---4----4--4-------5--5-------7-7-|
|---7---7---5-------9---9---7---7---7---7---5--------3--3------5--5------|
|------------------------------------------------------------------------|
|-.-.-.-.----------------------------------------------------------------|
|--------------------------------------------|
|--------------------------------------------|
|-5---5---4---4---7---7---5---5--------------|Gtr I
|---7---7---5---5---9---9---7---7--5---(5)---|
|----------------------------------3---(3)---|
|--------------------------------------------|
| |
|--------------------------------------------|
|--------------------------------------------|
|-5---5---4---4-4-7---7---5---5--------------|Gtr II
|---7---7---5-------9---9---7---7--5---(5)---|
|----------------------------------3---(3)---|
|--------------------------------------------|
Riff E.1
|-----------------------------------------------------------------|
|-8~------7~-----10~-----5~--------------7~-----/10---8--7-------|
|-----------------------------------------------------------------|Gtr I
|-5~------4~------7~-----2~--------------4~-----/-7---5--4-------|
|-----------------------------------------------------------------|
|-----------------------------------------------------------------|
| |
|-----------------------------------------------------------------|
|------------------------------------------------------hp---------|
|-----------------------------------------4--4--4--5--454---------|Gtr II
|---------------------------------------------------------7-------|
|-----------------------------------------------------------------|
|-----------------------------------------------------------------|
| |
|-----------------------------------------------------------------|
|-----------------------------------------------------------------|
|---------4-4-4-4-7-7-7-7-2-2-2-2---------4-4-4-4-5-5-5-5-7-7-7-7-|Gtr III
|-2-2-2-2-4-4-4-4-7-7-7-7-2-2-2-2-2-2-2-2-4-4-4-4-5-5-5-5-7-7-7-7-|
|-2-2-2-2-2-2-2-2-5-5-5-5-0-0-0-0-2-2-2-2-2-2-2-2-3-3-3-3-5-5-5-5-|
|-0-0-0-0-------------------------0-0-0-0-------------------------|
Riff E.2
|--------------------------------------------------------|
|-8~------7~-----10~-----5~-----------------------------|
|---------------------------------7~-------------11~-9-7-|Gtr I
|-5~------4~------7~-----2~-----------------------------|
|---------------------------------5~--------------9~-7-5-|
|--------------------------------------------------------|
| |
|--------------------------------------------------------|
|--------------------------------------------------------|
|---------4-4-4-4-7-7-7-7-2-2-2-2-----------------4~-----|Gtr III
|-2-2-2-2-4-4-4-4-7-7-7-7-2-2-2-2-5-5-5-5-5-5-5-5-4~-----|
|-2-2-2-2-2-2-2-2-5-5-5-5-0-0-0-0-5-5-5-5-5-5-5-5-2~-----|
|-0-0-0-0-------------------------3-3-3-3-3-3-3-3--------|
Repeat Riff E.1 (1 Time)
Riff E.3
|--------------------------------------------------------|
|-8~------7~-----10~-----5~-----------------------------|
|---------------------------------7~-------------11~-9-11|Gtr I
|-5~------4~------7~-----2~-----------------------------|
|---------------------------------5~--------------9~-7-9-|
|--------------------------------------------------------|
| |
|--------------------------------------------------------|
|--------------------------------------------------------|
|---------4-4-4-4-7-7-7-7-2-2-2-2-----------------4~-----|Gtr III
|-2-2-2-2-4-4-4-4-7-7-7-7-2-2-2-2-5-5-5-5-5-5-5-5-4~-----|
|-2-2-2-2-2-2-2-2-5-5-5-5-0-0-0-0-5-5-5-5-5-5-5-5-2~-----|
|-0-0-0-0-------------------------3-3-3-3-3-3-3-3--------|
Riff F (Solo) Rhythm Plays Riff B.1
|--------------------------------------------------------|
|---------------------------------------7-8-8fb+r-7------|
|----------------------------9~---9---9-------------9----|Solo Gtr I
|--------------------------------9-----------------------|
|-----7---7-5---5-7---7----------------------------------|
|-0-0---0-----7-----0------------------------------------|
| |
|-----------------------------------------7-7hb+r--------|
|----------------------------8~---8---8-10-------10-8----|
|--------------------------------9-----------------------|Solo Gtr II
|--------------------------------------------------------|
|-----7---7-5---5-7---7----------------------------------|
|-0-0---0-----7-----0------------------------------------|
*=note still bent up 1 step
*
|-----------------------------------17-19-hb+r-17-19-19hb+r-17-----------|
|-19hb-19-19hb-19hb+r-17-19-19hb-20----------------------------20fb+r-19~|
|------------------------------------------------------------------------|
|------------------------------------------------------------------------|
|------------------------------------------------------------------------|
|------------------------------------------------------------------------|
Riff G.1 (Solo 2)
|---------------------------------------------------------------|
|12----12-14-15-14-12-14-10-10-12-14-12-10-12----12-14-15-14-12-|
|---11----------------------------------------12----------------|Gtr I
|---------------------------------------------------------------|
|---------------------------------------------------------------|
|---------------------------------------------------------------|
| |
|---------------------------------------------------------------|
|---------------------------------------------------------------|
|-4-----4--------------2-----2----------------------------------|Gtr
|-4-----4-----5--5--5--2-----2-----4--4--4--5-----5-----2--2--2-| II
|-2-----2-----5--5--5--0--0--0--0--4--4--4--5-----5-----2--2--2-|
|----2-----2--3--3--3--------------2--2--2--3--3--3--3--0--0--0-|
|-------------------14-|
|-11----12----14-------|
|----11----11----11----|Gtr I
|----------------------|
|----------------------|
|----------------------|
| |
|----------------------|
|----------------------|
|--------------3-----3-|Gtr II
|--4-----4-----3-----3-|
|--4-----4-----1-----1-|
|--2--2--2--2-----2----|
Repeat Riff G.1 (1 Time)
Riff G.2 (Play Overtop Riff G.1)
|---------------------------------------------------------------|
|-------------7-----------------------------------------7-------|
|-7-----7--9-----9--7--9--6--6--7--9--7--6--7-----7--9-----9--7-|Gtr III
|----9-----------------------------------------9----------------|
|---------------------------------------------------------------|
|---------------------------------------------------------------|
Riff G.3
|-------------------14-|
|-11----12----14-------|
|----11----11----11----|Gtr I
|----------------------|
|----------------------|
|----------------------|
| |
|--------------------6-|
|----------------------|
|--6-----7-----9-------|Gtr III
|-----9-----9-----9----|
|----------------------|
|----------------------|
| |
|----------------------|
|----------------------|
|--------------3-----3-|Gtr II
|--4-----4-----3-----3-|
|--4-----4-----1-----1-|
|--2--2--2--2-----2----|
Repeat Riff G.2 (1 Time)
Repeat Riff G.3 (2 Times)
Riff A.3 (Play Overtop Riff A.1)
|--/15-14-------h------------------------------------------------|
|---------15--15-17-15---------------------------------------15~-|
|----------------------17-16~--14-16-17-16-14-16-------14-16-----|Gtr I
|------------------------------------------------17-17-----------|
|----------------------------------------------------------------|
|----------------------------------------------------------------|
|---15-14-------h------------------------------------------------|
|---------15--15-17-15-------------------------------------------|
|----------------------17-16~--14-16-17-16-14-16-------14--------|Gtr I
|------------------------------------------------17-17----17-16~-|
|----------------------------------------------------------------|
|----------------------------------------------------------------|
Riff H (Play Overtop Riff B.1)
* * * * * * * * *
|-12-0-0-5-0---0-0-12-0-0-5-0---0-0-12-0-0-5-0----0-0--------------|
|------------5----------------5----------------5-------------------|
|------------------------------------------------------------------|Gtrs I
|------------------------------------------------------------------| & II
|--all '*'s are natural harmonics at those frets-------------------|
|------------------------------------------------------------------|
hp hph
|--8--787-5-7-5757---|
|------------------8-|
|--------------------|Gtr I
|--------------------|
|--------------------|
|--------------------|
| |
|------hp------hph---|
|-10-8108-7-8-7878---|
|------------------9-|Gtr II
|--------------------|
|--------------------|
|--------------------|
Repeat Riff H (1 Time)
Repeat Riff C.1 (1 Time)
Repeat Riff D (1 Time)
Repeat Riff E (2 Times)
Riff I
|----------------------------------------------------------------|
|----15----14-15-14----14----------14----------------14-15-14----|
|-------16----------16----14----16----16-14-16----16----------16-|Keyboard
|----------------------------------------------17----------------|
|----------------------------------------------------------------|
|----------------------------------------------------------------|
| |
|----------------------------------------------------------------|
|----------------------------------------------------------------|
|----------------------------------------------------------------|Gtr I
|----------------------------------------------------------------|
|----------------------------------------------------------------|
|-----7~-------3~-------5~----------2~-------3~----------0~------|
| |
|----------------------------------------------------------------|
|----------------------------------------------------------------|
|----------------------------------------------------------------|Gtr II
|----------------------------------------------------------------|
|----------------------------------------------------------------|
|----10~-------7~-------9~---------5~-------7~----------3~------|
|----------------------------------------------------------------|
|-------------------14----------14-15-14----14----------14-------|
|-15----15----16-------16----16----------16----14----16----16-14-|Keyboard
|----16----16----16-------16-------------------------------------|
|----------------------------------------------------------------|
|----------------------------------------------------------------|
| |
|----------------------------------------------------------------|
|----------------------------------------------------------------|
|----------------------------------------------------------------|Gtr I
|----------------------------------------------------------------|
|----------------------------------------------------------------|
|--2~----2~----3~---5~--7~----------3~-------5~----------2~------|
| |
|----------------------------------------------------------------|
|----------------------------------------------------------------|
|----------------------------------------------------------------|Gtr II
|----------------------------------------------------------------|
|----------------------------------------------------------------|
|--6~----6~----7~---9~-10~----------7~-------9~--------5~-------|
|----------------------------------------------------------------|
|----------14-15-14----------------------14-------------------14-|
|-16----16----------16-15----15----16-------15----15----16-------|Keyboard
|----17-------------------16----16----16-------16----16----16----|
|----------------------------------------------------------------|
|----------------------------------------------------------------|
| |
|----------------------------------------------------------------|
|----------------------------------------------------------------|
|----------------------------------------------------------------|Gtr I
|----------------------------------------------------------------|
|----------------------------------------------------------------|
|--3~----------0~-------2~----2~----3~----5~-2~----2~----3~----5~|
| |
|----------------------------------------------------------------|
|----------------------------------------------------------------|
|----------------------------------------------------------------|Gtr II
|----------------------------------------------------------------|
|----------------------------------------------------------------|
|--7~----------3~-------6~----6~----7~----9~-6~----6~----7~----9~|
Riff J.1
|---------------------------------------------------------------------|
|------------------hp-------------------------------------------------|
|--9-----9-11-12-111211--9-11--------9-11--9-----9-----9-11-12-11--9--|Gtr
|-----9-----------------------12-------------12-----9-----------------| I
|---------------------------------------------------------------------|
|---------------------------------------------------------------------|
| |
|---------------------------------------------------------------------|
|------------------h-p------------------------------------------------|
|-12----12-14-16-141614-12-14-11-11-12-14-12-11-12----12-14-16-14-12--|Gtr
|----14--------------------------------------------14-----------------| II
|---------------------------------------------------------------------|
|---------------------------------------------------------------------|
| |
|---------------------------------------------------------------------|
|---------------------------------------------------------------------|
|--9-----9----5----5----5---7-----7----4--4--4---5-----5-----2--2--2--|Gtr
|--9-----9----5----5----5---7-----7----4--4--4---5-----5-----2--2--2--| III
|--7--7--7----3----3----3---5--5--5----2--2--2---3--3--3-----0--0--0--|
|---------------------------------------------------------------------|
Riff J.2
|--------------------7--|
|-----------------------|
|--8-----9----11--------|Gtr I
|-----9-----9-----9-----|
|-----------------------|
|-----------------------|
| |
|-------------------11--|
|-----------------------|
|-11----12----14--------|Gtr II
|----13----13----13-----|
|-----------------------|
|-----------------------|
| |
|-----------------------|
|-----------------------|
|-4---4---5----7--------|Gtr III
|-4---4---5----7--------|
|-2-2-2-2-3-3--5--------|
|-----------------------|
Repeat Riff J.1 (1 Time)
Repeat Riff J.2 (2 Times)
Riff J.3
|-----------------------|
|-----------12-10-------|
|--8-----9--------12-9--|Gtr I
|-----9-----------------|
|-----------------------|
|-----------------------|
| |
|-----------10----------|
|--------------13-12----|
|-11----12-----------12-|Gtr II
|----13-----------------|
|-----------------------|
|-----------------------|
| |
|-----------------------|
|-----------------------|
|-4-----4----5--5--7--9-|Gtr III
|-4-----4----5--5--7--9-|
|-2--2--2--2-3--3--5--7-|
|-----------------------|
Check Out Death Warp, With More Transcriptions On It:
http://www.sorrowsend.com/DeathWarp/




Ваше мнение



Капча