Band: In Flames
Song: Dead Alone
Album: Soundtrack to Your Escape (2004)
Legend
pm.: Palm Mute : Slide Back
*PH: Pinch Harmonic h: Hammer-on
^fb: Full Bend p: Pull-off
^hb: Half Bend ~: Let Note Ring (Vibrato)
/: Slide Forward (): Ghost Note
Tuning: Drop A# (A# F A# D# G C)
There is super over-dubbing in this song~!
Intro/Outro
Bjorn And Jesper
Gtr.1 w/Delay
|----8-----8---------8-----8------|
|-6-----6-----6-5-6-----6-----6-5-|
|---------------------------------|
|---------------------------------|
|---------------------------------|
|---------------------------------|
Gtr.1 w/Delay
|-----8--------8--------------8---------8---------|
|-6--------6----------6-5-6--------6----------6-5-|
|-------------------------------------------------|
|-------------------------------------------------|
|-------------------------------------------------|
|-------------------------------------------------|
|Gtr.2 w/Distortion |
|-------------------------------------------------|
|-------------------------------------------------|
|-------------------------------------------------|
|-0-0-0-0-0-0h5-5-5-5-5-53-3-3-3-3-3-3-3-3-3-3-3-|
|-0-0-0-0-0-0h5-5-5-5-5-53-3-3-3-3-3-3-3-3-3-3-3-|
|-0-0-0-0-0-0h5-5-5-5-5-53-3-3-3-3-3-3-3-3-3-3-3-|
|Gtr.3 w/Distortion |
|-------------------------------------------------|
|-------------------------------------------------|
|-------------------------------------------------|
|-0-0-0-0-0-0h5-5-5-5-5-53-3-3-3-3-3-3-3-3-3-3-3-|
|-0-0-0-0-0-0h5-5-5-5-5-53-3-3-3-3-3-3-3-3-3-3-3-|
|-0-0-0-0-0-0h5-5-5-5-5-53-3-3-3-3-3-3-3-3-3-3-3-|
Gtr.1 w/Delay
|-----8--------8--------------------------------------|
|-6--------6----------6-5-----------------------------|
|-----------------------------------------------------|
|-----------------------------------------------------|
|-----------------------------------------------------|
|-----------------------------------------------------|
|Gtr.2 w/Distortion |
|-----------------------------------------------------|
|-----------------------------------------------------|
|-----------------------------------------------------|
|-0-0-0-0-0-0h5-5-5-5-5-5-3-3-2-2-2-2-2-2-2-2-2-2-2-2-|
|-0-0-0-0-0-0h5-5-5-5-5-5-1-1/3-3-3-3-3-3-3-3-3-3-3-3-|
|-0-0-0-0-0-0h5-5-5-5-5-5-----------------------------|
|Gtr.3 w/Distortion |
|-----------------------------------------------------|
|-----------------------------------------------------|
|---------------------------------------3-5-3-2-------|
|-0-0-0-0-0-0h5-5-5-5-5-5-3-3-2-2-2-2-2---------5-3-2-|
|-0-0-0-0-0-0h5-5-5-5-5-5-1-1/3-3-3-3-3---------------|
|-0-0-0-0-0-0h5-5-5-5-5-5-----------------------------|
|Gtr.4 w/Distortion |
|-----------------------------------------------------|
|-----------------------------------------------------|
|-----------------------------------------2-----------|
|-0-0-0-0-0-0h5-5-5-5-5-5-0-0-2-2-2-2-2-5---5-3-2-----|
|-0-0-0-0-0-0h5-5-5-5-5-5-1-1/3-3-3-3-3-----------5-3-|
|-0-0-0-0-0-0h5-5-5-5-5-5-----------------------------|
Repeat Intro Again
Verse - Both Guitars
|---------------------------------------------|
|---------------------------------------------|
|---------------------------------------------|
|---------------------------------------------|
|-0-0---0-0-----------0-0---0-0----7/8---3-5--|
|-0-0---0-0-----------0-0---0-0----7/8---3-5--|x4
Pre-Chorus
Gtr.1
|---------------------------------------------------------------------|
|---------------------------------------------------------------------|
|---------------------------------------------------------------------|
|--------------7---7-------------------------------7---7--------------|
|-7-8-8-7---0----8---8--5-5-5-5-5-5-5--7-8-8-7--0----8---8----7-8-8-7-|
|-----------0-----------5-5-5-5-5-5-5-----------0---------------------|
|Gtr.2 |
|---------------------------------------------------------------------|
|---------------------------------------------------------------------|
|---------------------------------------------------------------------|
|-----7-5----------------------------------7-5--------------------7-5-|
|-7-8-------0--8-5-8-5--5-5-5-5-5-5-5--7-8------0--8-5-8-5----7-8-----|
|-----------0-----------5-5-5-5-5-5-5-----------0---------------------|
|Gtr.3 |
|---------------------------------------------------------------------|
|---------------------------------------------------------------------|
|---------------------------------------------------------------------|
|-3-3-5-5------------------------------3-3-5-5----------------3-3-5-5-|
|-1-1-3-3---------------5-5-5-5-5-5-5--1-1-3-3----------------1-1-3-3-|
|---------0-0-0-0-0-0-0-5-5-5-5-5-5-5-----------0-0-0-0-0-0-0---------|
pm...........
Gtr.1
|------------------------------------------------------------------|
|------------------------------------------------------------------|
|------------------------------------------------------------------|
|-----7---7------------------------7-5---7---7---------------------|
|-0-----8---8---5-5-5-5-5-5-5--7-8---------8---8-------------------|
|-0-------------5-5-5-5-5-5-5--------------------------------------|
|Gtr.2 |
|------------------------------------------------------------------|
|------------------------------------------------------------------|
|----------------------------------5-4-----------------------------|




Ваше мнение



Капча