E------------------------5----3----------/
A----5----1----3----5----7----5----1-----/
D----7----3----5----7----7----5----3-----/
G----7----3----5----7--------------3-----/
B----------------------------------------/
e----------------------------------------/
E------------------------------------/
A----5---------5------1---------1----/
D------7----7------------3----3------/
G--------7------------------3--------/
B------------------------------------/
e------------------------------------/
Made By Ron Tummers
(Nebular Frost)
Thes are the tabs of Dawn of a new day. The first one is the beginning and that
stuff. And the second is when the vocals are slow.
Excuse me for my bad Englisch explaning. When you don't get it mail me at
[email protected]




Ваше мнение



Капча