Song: In Flames
Artist: Cloud Connected
Tabbed by: Kunoichi ([email protected])
Tuning: 1/2 step down Dropped D (DADGBE)
This is my first shot at a tab. I know there are
errors in this, and there are 2 guitars for this
song as well, but i think there isnt much
difference between them except the chorus and the
solo. Feel free to correct me of my errors.
Legend:
x Mute notes
e -----------------------------------------------
B -----------------------------------------------
G -----------------------------------------------
D --11-11---11-11-----9--11-11---11-11-----9-----
A --11-11---11-11-----9--11-11---11-11-----9-----
D --11-11---11-11-----9--11-11---11-11-----9-----
x x x x x x x x

e -----------------------------------------------
B -----------------------------------------------
G -----------------------------------------------
D --11-11-11--9--11--14--13--9--6-6--13---------- 8x
A --11-11-11--9--11--14--13--9--6-6--13----------
D --11-11-11--9--11--14--13--9--6-6--13----------
x x x x
e ------------------
B ------------------
G ------------------
D --11-11---11-11---
A --11-11---11-11---
D --11-11---11-11---
x x x x

e -----------------------------------------------
B -----------------------------------------------
G -----------------------------------------------
D --11-11-11--9--11--14--13--9--6-6--13---------- 2x
A --11-11-11--9--11--14--13--9--6-6--13----------
D --11-11-11--9--11--14--13--9--6-6--13----------
x x x x

e -----------------------------------------------
B -----------------------------------------------
G -----------------------------------------------
D --11----------9----------11----------6---------
A --11----------9----------11----------6---------
D --11----------9----------11----------6---------
e ------------------
B ------------------
G ------------------
D --11-11---11-11---
A --11-11---11-11---
D --11-11---11-11---
x x x x

e -----------------------------------------------
B -----------------------------------------------
G -----------------------------------------------
D --11-11-11--9--11--14--13--9--6-6--13----------
A --11-11-11--9--11--14--13--9--6-6--13----------
D --11-11-11--9--11--14--13--9--6-6--13----------
x x x x

e -----------------------------------------------
B -----------------------------------------------
G --11-11-11--9--11-11-11--9---------------------
D --11-11-11--9--11-11-11--9----9----------------
A --9--9--9---7--9--9--9---7----9----------------
D ------------------------------9----------------
x x x x

e -----------------------------------------------
B -----------------------------------------------
G -----------------------------------------------
D --11-11-11--9--11--14--13--9--6-6--13----------
A --11-11-11--9--11--14--13--9--6-6--13----------
D --11-11-11--9--11--14--13--9--6-6--13----------
x x x x

e -----------------------------------------------
B -----------------------------------------------
G --11-11-11--9--11-11-11--9---------------------
D --11-11-11--9--11-11-11--9---------------------
A --9--9--9---7--9--9--9---7---------------------
D -----------------------------------------------
x x x x

Chorus:
Guitar 1:
e -----------------------------------------------
B -----------------------------------------------
G -----------------------------------------------
D --2-----6-----2-----6-----4-------------------- 2x
A --2-----6-----2-----6-----4-------------------- (listen to song for rhythm)
D --2-----6-----2-----6-----4--------------------
Guitar 2:
e -----------------------------------------------
B -----------------------------------------------
G --9----13----9----13----11---------------------
D --9----13----9----13----11--------------------- 2x
A --7----11----7----11----9---------------------- (listen to song for rhythm)
D --7----11----7----11----9----------------------

e -------------------------------------------------------
B -------------------------------------------------------
G -------------------------------------------------------
D --11-11---11-11-----11-11---11-11---9-11-11---11-11----
A --11-11---11-11-----11-11---11-11---9-11-11---11-11----
D --11-11---11-11-----11-11---11-11---9-11-11---11-11----
x x x x x x x x x x x x
e -----------------------------------------------
B -----------------------------------------------
G -----------------------------------------------
D --11-11-11--9--11--14--13--9--6-6--13---------- 2x
A --11-11-11--9--11--14--13--9--6-6--13----------
D --11-11-11--9--11--14--13--9--6-6--13----------
x x x x

e -----------------------------------------------
B -----------------------------------------------
G -----------------------------------------------
D --11----------9----------11----------6---------
A --11----------9----------11----------6---------
D --11----------9----------11----------6---------
e -------------------------------------------------------
B -------------------------------------------------------
G -------------------------------------------------------
D --11-11---11-11-----11-11---11-11---9-11-11---11-11----
A --11-11---11-11-----11-11---11-11---9-11-11---11-11----
D --11-11---11-11-----11-11---11-11---9-11-11---11-11----
x x x x x x x x x x x x
e -----------------------------------------------
B -----------------------------------------------
G -----------------------------------------------
D --7-----------6-----------4-----------2--------
A --7-----------6-----------4-----------2--------
D --7-----------6-----------4-----------2--------
Chorus:
Guitar 1:
e -----------------------------------------------
B -----------------------------------------------
G -----------------------------------------------
D --2-----6-----2-----6-----4-------------------- 2x
A --2-----6-----2-----6-----4-------------------- (listen to song for rhythm)
D --2-----6-----2-----6-----4--------------------
Guitar 2:
e -----------------------------------------------
B -----------------------------------------------
G --9----13----9----13----11---------------------
D --9----13----9----13----11--------------------- 2x
A --7----11----7----11----9---------------------- (listen to song for rhythm)
D --7----11----7----11----9----------------------
e ------------------
B ------------------
G ------------------
D --11-11---11-11---
A --11-11---11-11---
D --11-11---11-11---
x x x x
Solo Played by Guitar 1:
e ------------------------------------
B -----------------------12b14-14-14--
G --------5b6-6-6r5b6~~---------------
D ------------------------------------
A -b4r3~~-----------------------------
D ------------------------------------
e ------------------17-19-21~~--
B ---------17-19-21-------------
G 16-18-20----------------------
D ------------------------------
A ------------------------------
D ------------------------------
for the b4r3 start the bend and play the 4th fret,
then release back to 3, then hold a little, before
bending back to 4 then releasing to 3 a bunch of times.
Listen to song to understand what I mean (watch the video
for even better example)

Solo Played by Guitar 2:
e ------------------------------------------------------------
B ------------------------------------------------------------
G -8-6---6-8--9~-8--6-----6--8--8-9---6-8-9--8--6--6--8--9----
D ---------------------9--------------------------------------
A ------------------------------------------------------------
D ------------------------------------------------------------
e --------------------------------------------------------------------
B -----------------------------------------------------9--7--5--10--9-
G -8-9-6---6-8--9~-8--6-----6--8--8-9-6---6-8-9--8--6-----------------
D -----------------------9--------------------------------------------
A --------------------------------------------------------------------
D --------------------------------------------------------------------
Chorus:
Guitar 1:
e -----------------------------------------------
B -----------------------------------------------
G -----------------------------------------------
D --2-----6-----2-----6-----4-------------------- 2x
A --2-----6-----2-----6-----4-------------------- (listen to song for rhythm)
D --2-----6-----2-----6-----4--------------------
Guitar 2:
e -----------------------------------------------
B -----------------------------------------------
G --9----13----9----13----11---------------------
D --9----13----9----13----11--------------------- 2x
A --7----11----7----11----9---------------------- (listen to song for rhythm)
D --7----11----7----11----9----------------------
e -----------------------------------------------
B -----------------------------------------------
G -----------------------------------------------
D --11-11-11--9--11--14--13--9--6-6--13---------- 4x
A --11-11-11--9--11--14--13--9--6-6--13----------
D --11-11-11--9--11--14--13--9--6-6--13----------
x x x x
e ------------------
B ------------------
G ------------------
D --11-11---11-11---
A --11-11---11-11---
D --11-11---11-11---
x x x x




Ваше мнение



Капча