In Flames
Colony
Behind Space
/ - slide up to - slide down to
h - hammer on p - pull off
^ - bend
Intro:
-------------------------------------------------------------|
-------------------------------------------------------------|
-0----------0-----12---7-7-7-5-5-8-8--7-7-7-8-8-5-5--------|
-------------------------------------------------------------|
-------------------------------------------------------------|
-------------------------------------------------------------|
-0---------0-0----12---7-7-7-5-5-8-8--7-7-7-8-8-5-5--------|
-------------------------------------------------------------|
Verse 1:
-------------------------------------------------------------|
-------------------------------------------------------------|
-000-000-000-000-000-000--3-1-3-4----------------------------| (2x)
-------------------------------------------------------------|
Verse 2:
-------------------------------------------------------------|
-------------------------------------------------------------|
-0-2-5-3-5-3-2-0-2-3-----------------------------------------| (2x)
-------------------------------------------------------------|
Back to Intro:
-------------------------------------------------------------|
-------------------------------------------------------------|
-0----------0-----12---7-7-7-5-5-8-8--7-7-7-8-8-5-5--------|
-------------------------------------------------------------|
-------------------------------------------------------------|
-------------------------------------------------------------|
-0---------0-0----12---7-7-7-5-5-8-8--7-7-7-8-8-5-5--------|
-------------------------------------------------------------|
Verse 3:
---------------222222----------------000-222-----------------|
--------222222--------3333333-000000---------222-000---------|
-000000----------------------------------------------333-----| (2x)
---------------------------------------------------------333-|
Verse 4:
-------------------------------------------------------------|
---------333333--000000-555555-------------------------------|
-000000------------------------------------------------------|
-------------------------------555555-333333-222222-000000---|
Verse 5:
-------------------------------------------------------------|
-------------------------------------------------------------|
-0-----------------------------------------------------------| (4x)
------1----3-----0-------------------------------------------|
Verse 6:
-------------------------------------------------------------|
-------------------------------------------------------------|
-0-----------------------------------------------------------| (2x)
------111----3---0-000-000-----------------------------------|
Back to Intro:
-------------------------------------------------------------|
-------------------------------------------------------------|
-0----------0-----12---7-7-7-5-5-8-8--7-7-7-8-8-5-5--------|
-------------------------------------------------------------|
-------------------------------------------------------------|
-------------------------------------------------------------|
-0---------0-0----12---7-7-7-5-5-8-8--7-7-7-8-8-5-5--------|
-------------------------------------------------------------|
Verse 1:
-------------------------------------------------------------|
-------------------------------------------------------------|
-000-000-000-000-000-000--3-1-3-4----------------------------| (2x)
-------------------------------------------------------------|
Verse 2:
-------------------------------------------------------------|
-------------------------------------------------------------|
-0-2-5-3-5-3-2-0-2-3-----------------------------------------| (2x)
-------------------------------------------------------------|
Verse 7:
-------------------------------------------------------------|
-------------------------------------------------------------|
----------------1----1-1-------------------------------------| (2x)
-0-0-----0-0-------------------------------------------------|
Verse 8:
-------------------------------------------------------------|
-------------------------------------------------------------|
-12-----------1-----------------1--------------------------|
---------0----------------0----------------------------------|
Bass Lead:
-------------------------------------------------------------|
-----------------------------15-12--12-12-12---12------------|
--12-0-0-0-00---0h12p0-15p14----------------------5^---------|
-------------------------------------------------------------|
-------------------------------------------------------------|
--------------------------15-12--12-12-12---12---------------|
--0-0-0-00---0h12p0-15p14----------------------5^------------|
-------------------------------------------------------------|
Verse 9:
-------------------------------------------------------------|
-------------------------------------------------------------|
-------------------------------------------------------------|
-0-------4-------0--------4----------------------------------|
Verse 10:
-------------------------------------------------------------|
-------------------------------------------------------------|
-0000-0000-0000-0000-4444-4444-4444-4444---------------------|
-------------------------------------------------------------|
-------------------------------------------------------------|
-------------------------------------------------------------|
-0000-0000-0000-0000-4444-4444-4444-4444-4/124--------------|
-------------------------------------------------------------|
-------------------------------------------------------------|
-------------------------------------------------------------|
-0000-0000-0000-0000-6666-6666-6666-6666---------------------|
-------------------------------------------------------------|
-------------------------------------------------------------|
-------------------------------------------------------------|
-0000-0000-0000-0000-6666-6666-6666/14-14-14-14--------------|
-------------------------------------------------------------|
Verse 9:
-------------------------------------------------------------|
-------------------------------------------------------------|
-------------------------------------------------------------|
-0-------4-------0--------4----------------------------------|
Outro:
-------------------------------------------------------------|
-------------------------------------------------------------|
-0----------0-----12---7-7-7-5-5-8-8--7-7-7-8-8-5-5--------|
-------------------------------------------------------------|
-------------------------------------------------------------|
-------------------------------------------------------------|
-0---------0-0----12---7-7-7-5-5-8-8--7-7-7-8-7-5-3-0------|
-------------------------------------------------------------|




Ваше мнение



Капча