#----------------------------------PLEASE NOTE---------------------------------#
#This file is the author's own work and represents their interpretation of the #
#song. You may only use this file for private study, scholarship, or research. #
#------------------------------------------------------------------------------#

IN FLAMES - ARTIFACTS OF THE BLACK RAIN (BASS)
From the Album THE JESTER RACE
Copyright 1996 NUCLEAR BLAST
Version 1.0 - DECEMBER 2001

Transcribed by: Christian Andolf

For Questions, Comments, Newest Version, or Corrections contact
Christian Andolf: at [email protected]

. - palm mute / - slide up to
- slide down to ~ - vibrato
h - hammer on b - bend
p - pull off Suffixes for bend
ph - pinch harmonic
f - full bend h - half bend
* - see comment r - release t - tap bend
X - percussion mute ~ - vibrato bend
@ - slight palm mute () - ghost note, sustained note

Tune Bass to C (C, F, A#, D#)

Intro (0:00)
|------------------------------------------------------|
|------------------------------------------------------|
|--00000000-2/3-00000000-2/3------------33-22-00-22----|
|----------------------------11111111------------------| x2

Verse I (0:12)
|----------------------------------------|
|----------------------------------------|
|--0--0--0--3--3--3--5--5--5--1--0-1~----|
|----------------------------------------| x4
. . . . . . . . . . .

Verse II (0:38)
|----------------------------------------------------|
|----------------------------------------------------|
|--0~----------------0~-------0~---------------------|
|-------3~------1~-----------------3~------1~---3~---| x2

Verse I x2 (0:51)
Verse II x2 (1:03)
Intro x2 (1:16)
Verse I x2 (1:28)
Verse II x2 (1:40)

(1:53) (1:59) (2:06)
|-----------------------|--------|------------------------|
|-----------------------|-GUITAR-|------------------------|
|--0~---------------0---|-(REST)-|------------------------|
|-----------------------|--------|--1-1-1-1-1-1-1-1-3-3---|
. . .
(2:09)
|---------------------------------------|
|---------------------------------------|
|--7-777-777-777-77---------------------|
|-------------------7-777-777-777-77----| x2

(2:23)
|--------------------------------|
|--------------------------------|
|--7~-----3~--------------5~-----|
|------------------3~------------| x3

(2:32)
|--------------------------------|
|--------------------------------|
|--3-3-3-3-3-3-3-3-5-5-----------|
|--------------------------------|
. .

Verse I x4 (2:36)
Intro x2 (3:01)




Ваше мнение



Капча