Это моя версия этой песни и она звучит не в точности как на записи.
Но я думаю Вам она понравится! Любые комментарии и исправления приветсвуются!

First the music:
Сначала музыка:
This pattern (acoustic with nylon strings) uses in intro & first two lines in verses
Эта партия (акустика с нейлоновыми струнами) используется во вступлении и первых двух
строках куплета
Play silently (Играть приглушенно)
| |
Dm C Dm V V
e-----------0----------------0-1-0-----------|
B|--3-----3---1---1--3-----1-----3----3---------3--------|
G|--2---------0------------------2-----------------------|
D|--0----------------------------0-----------------------|
A-3------------------------------------------|
E--------------------------------------------|
Play normal sound (Играть нормально)
| |
Dm C Dm V V
e-----------0----------------0-1-0-----------|
B|--3-----3---1---1--3-----1-----3----3---------3--------|
G|--2---------0------------------2-----------------------|
D|--0----------------------------0-----------------------|
A-3------------------------------------------|
E--------------------------------------------|
This pattern (acoustic with nylon strings) uses in last two lines of verses
Эта партия (акустика с нейлоновыми струнами) используется в последних двух строках куплета
Play silently (Играть приглушенно)
| |
F C Dm V V
e|--1----1--------------0----------------0-1-0-----------|
B|--1---------1---1--3-----1-----3----3---------3--------|
G|--2---------0------------------2-----------------------|
D|--3----------------------------0-----------------------|
A-3------------------------------------------|
E--------------------------------------------|
Play normal sound (Играть нормально)
| |
F C Dm V V
e|--1----1--------------0----------------0-1-0-----------|
B|--1---------1---1--3-----1-----3----3---------3--------|
G|--2---------0------------------2-----------------------|
D|--3----------------------------0-----------------------|
A-3------------------------------------------|
E--------------------------------------------|
For example:
Например:
Dm C Dm
Eiris sazun idisi
Dm C Dm
Sazun hera duoder
F C Dm
Suma hapt heptidun
F C Dm
Suma heri lezidun
The second acoustic guitar playing some kind of arpeggios of this chords.
Вторая акустическая гитара играет что-то вроде перебора на те же аккорды.
When distortion guitar came in, it plays chords:
Когда вступает гитара с дисторш, она играет аккорды:
D5 C5 F5
e-----------------|
B-----------------|
G---7----5----10--|
D---7----5----10--|
A---5----3----8---|
E-----------------|
For example:
Например:
D5 C5 D5
Eiris sazun idisi
D5 C5 D5
Sazun hera duoder
F5 C5 D5
Suma hapt heptidun
F5 C5 D5
Suma heri lezidun
Then the Lyrics:
Теперь слова:
Hort von den sieben Vaganten
Die ihr Gluck in der Holle fanden
Behangen mit Fetzen und Schellen
Die so laut wie Hunde bellen
Ihr Lachen ist Sturm und Gewitter
Feiern und zechen bis kommt der todliche Schnitter
Verehrt und angespien
Sind sie bekannt im ganzen Land
Von allen In Extremo genannt genannt
Eiris sazun idisi
Sazun hera duoder
Suma hapt heptidun
Suma heri lezidun
Suma clubodun
Umbi cuoniouuidi:
Insprinc haptbandun
Invar vigandun
Eiris sazun idisi
Sazun hera duoder
Suma hapt heptidun
Suma heri lezidun
Suma clubodun
Umbi cuoniouuidi:
Insprinc haptbandun
Invar vigandun
Suma clubodun
Umbi cuoniouuidi:
Insprinc haptbandun
Invar vigandun
Eiris sazun idisi
Sazun hera duoder
Suma hapt heptidun
Suma heri lezidun
Suma clubodun
Umbi cuoniouuidi:
Insprinc haptbandun
Invar vigandun.





Ваше мнение



Капча