Author/Artist: Impaled Nazarene
Title: Worms In Rectum
Album: Decade of Decadence
Transcribed by: Sami Aapaoja (Thanks to Mikko Luokkanen, he figured out riff 1)
Email: [email protected]

|------------------------------------|
|------------------------------------|
|------------------------------------|
|------------------------------------|
|------------------------------------|
|-0000-6-5-0000-6-5-0000-6-5-3-3-3-3-|
Intro/Verses/Outro (Riff 1)

|---------------------------------|
|---------------------------------|
|-----8-7-----8-7-----8-7-5-5-5-5-|
|-7-7-8-7-7-7-8-7-7-7-8-7-5-5-5-5-|
|-7-7-6-5-7-7-6-5-7-7-6-5-3-3-3-3-|
|-5-5-----5-5-----5-5-------------|
Chorus (Riff 2)

Songflow:

Riff 1 2x (bass only)
Riff 1 2x (guitar and bass)
Riff 2 4x
Riff 1 4x
Riff 2 4x
Riff 1 4x


Ваше мнение



Капча