IMPALED NAZARENE
VITUTUKSEN MULTIHUIPENNUS
from: Suomi Finland Perkele
transcripted by Samu Мдnniккц
(still not in mailing list)
Intro riff
|-----------------------------------------|
|-----------------------------------------|
|-----------------------------------------|
|--9-9-9-9-9-9-10-/-9-9-9-9-8-8-8-8-8-8--|
|--7-7-7-7-7-7--8-/-7-7-7-7-6-6-6-6-6-6--|
|--0-0-0-0-0-0-------0-0-0-0--------------|
Play it first 8 times
then:
|------------|
|------------|
|------------|
|-9--9--8--8-|
|-7--7--6--6-|
|-0--0-------|
Play it 4 times
then:
Play Intro riff 8 times.(lyrics come on 5th time)
then:
chorus
|-----------------------------------------------------------------|
|-----------------------------------------------------------------|
|-----------------------------------------------------------------|
|-4-4-4-6-6-6-7-7-7-7-9-9-7-7-6-6-6-7-7-6-6-6-7-7-7-9-9-7-7-6-6-6-|
|-5-5-5-7-7-7-9-9-9-9-9-9-9-9-7-7-7-7-7-7-7-7-9-9-9-9-9-9-9-7-7-7-|
|-----------------------------------------------------------------|
Play this 2 times
and on second time add
this in to the riff`s end:
|-------------|
|-------------|
|-------------|
|-4-4-4-6-6-6-|
|-5-5-5-7-7-7-|
|-------------|
then:
Play intro riff 8 times
then:
Play chorus twice and remember to add
the small part on second time
then:
|-----------------------------------------------------------|
|-----------------------------------------------------------|
|-----------------------------------------------------------|
|-4-4-4-6-6-6-7-7-7-7-9-9-7-7-6-6-6-6-6-7-7-7-9-9-7-7-6-6-6-|
|-5-5-5-7-7-7-9-9-9-9-9-9-9-9-7-7-7-7-7-9-9-9-9-9-9-9-7-7-7-|
|-----------------------------------------------------------|
Play this twice and on second
time add this to the end:
|-----------------------|
|-----------------------|
|-----------------------|
|-4-4-4-6-6-6-7let ring-|
|-5-5-5-7-7-7-9let ring-|
|-----------------------|

There it is!
If you have something in your mind:
[email protected]
by the way i`m making tab from impaleds blood is thicker than water.


Ваше мнение



Капча