my first tab....gimme a break. heh, sorry no solo..but it is a very awesome solo.. EADGBe tune
intro
|-------------|
|-------------|
|-------------|
|--10-x--12---|
|--10-x--12---|
|--8--x--10---|
riff1
-----------------------------------------------------------|
-----------------------------------------------------------|
-------------10-10-10-10-10--------------------------------|
--7-7-7-7-7--10-10-10-10-10--10-10-10-10-10----------------|
--7-7-7-7-7--8--8--8--8--8---10-10-10-10-10----------------|
--5-5-5-5-5------------------8--8--8--8--8-----------------|
then add to the end of riff1:
--------------| |-------------|
--------------| |-------------|
--------------| |-------------|
-12--10--9----| :alternate: |--10-x--12---|
-12--10--9----| |--10-x--12---|
-10--8---7----| |--8--x--10---|
1 2 3
(2/3 sometimes plam mute and 1 tremelo)
----------------------------------------------------------------------
----------------------------------------------------------------------
----------------------------------------------------------------------
----10-10-10-10-10--9/12----10----------------------------------------
----10-10-10-10-10--9/12----10----------------------------------------
----8--8--8--8--8---7/10----8-----------------------------------------
PM . dunno how many times, its weird listen to it
outro-
-------
-------
---10--
---8--- really fast...
---8---
-------




Ваше мнение



Капча