#-----------------------------------------------------------------------------#
#-- File created with Instab - http://www.pconline.com/~smcarey/instab.html --#
#-----------------------------------------------------------------------------#

Author/Artist: Impaled Nazarene
Title: I Am the Killer of Trolls
Album: Decade of Decadence
Transcribed by: Sami Aapaoja
Email: [email protected]

Intro/Verse
|---------------------------------| 4x
|---------------------------------|
|---------------------------------|
|-9-9-9-9-9-9-8-8-5-5-5-5-5-5-5-5-|
|-9-9-9-9-9-9-8-8-5-5-5-5-5-5-5-5-|
|-7-7-7-7-7-7-6-6-3-3-3-3-3-3-3-3-|

Chorus
|---------------------------------| 4x
|---------------------------------|
|-9-9-9-9-9-9-9-9-5-5-5-5-7-7-----|
|-9-9-9-9-9-9-9-9-5-5-5-5-7-7-9-9-|
|-7-7-7-7-7-7-7-7-3-3-3-3-5-5-9-9-|
|-----------------------------7-7-|

|---------------------------------|-------------------------------| 2x
|---------------------------------|-------------------------------|
|---------------------------------|----6-6-6-6-6-6----6-6-6-6-6-6-|
|-9-9-9-9-9-9-9-9-9-9-9-9-9-9-9-9-|-5--6-6-6-6-6-6-5--6-6-6-6-6-6-|
|-9-9-9-9-9-9-9-9-9-9-9-9-9-9-9-9-|-5--4-4-4-4-4-4-5--4-4-4-4-4-4-|
|-7-7-7-7-7-7-7-7-7-7-7-7-7-7-7-7-|-3--------------3--------------|

|---------------------------------|---------------------------------|
|---------------------------------|---------------------------------|
|---------------------------------|---------------------------------|
|-9-9-9-9-5-5-5-5-9-9-9-9-5-5-5-5-|-9-9-9-9-7-7-7-7-7-7-7-7-7-7-7-7-|
|-9-9-9-9-5-5-5-5-9-9-9-9-5-5-5-5-|-9-9-9-9-7-7-7-7-7-7-7-7-7-7-7-7-|
|-7-7-7-7-3-3-3-3-7-7-7-7-3-3-3-3-|-7-7-7-7-5-5-5-5-5-5-5-5-5-5-5-5-|

Chorus
|---------------------------------| 4x
|---------------------------------|
|-9-9-9-9-9-9-9-9-5-5-5-5-7-7-----|
|-9-9-9-9-9-9-9-9-5-5-5-5-7-7-9-9-|
|-7-7-7-7-7-7-7-7-3-3-3-3-5-5-9-9-|
|-----------------------------7-7-|

|---------------------------------|------------------------------------|
|---------------------------------|------------------------------------|
|-5-5-5-5-7-7-7-7-5-5-5-5-7-7-7-7-|------------------------------------|
|-5-5-5-5-7-7-7-7-5-5-5-5-7-7-7-7-|-2---------------------------------|
|-3-3-3-3-5-5-5-5-3-3-3-3-5-5-5-5-|-2---------------------------------|
|---------------------------------|-0---------------------------------|
rit. pick slide




Ваше мнение



Капча