Impaled Nazarene: Ghettoblaster
INTRO
--------------------------------------------
--------------------------------------------
--------------------------------------------
--------------------------------------------
--101010999777555---------------------------
--------------------------------------------
FIRST PRE-VERSE
--------------------------------------
--------------------------------------
--------------------------------------
--99-999-999-91212-1299-999-999-91212-
--77-777-777-71010-1077-777-777-71010-
--------------------------------------
------------------------------------------------------
------------------------------------------------------
------------------------------------------------------
-1277-777-777-71212-12------------777999777-----------
-1055-555-555-51010-10777999101010---------101010999--
------------------------------------------------------
FIRST VERSE PART 1
-------------------------------------------------------------------------------
-------------------------------------------------------------------------------
-------------------------------------------------------------------------------
--99-999-999-91212-1299-999-999-91212-1277-777-777-71212-1299-999-999-91212-12-
--77-777-777-71010-1077-777-777-71010-1055-555-555-51010-1077-777-777-71010-10-
-------------------------------------------------------------------------------
firestorm genocide kill them all
before they kill you
FIRST VERSE PART 2
----------------------------------------------------------------------------------
----------------------------------------------------------------------------------
----------------------------------------------------------------------------------
--99-999-999-91212-1299-999-999-91212-1277-777-777-71212-1299-999-999-99~~~~~~~---
--77-777-777-71010-1077-777-777-71010-1055-555-555-51010-1077-777-777-77~~~~~~~---
----------------------------------------------------------------------------------
radiation overkill apocalyptic truth
of the year one
FIRST CHORUS
---------------------------------------------------------------------------------------
---------------------------------------------------------------------------------------
-----------------------------------------------------------------------------------
--55-54-5-77-75-799-999-999977755544455-54-5-77-75-7-----------------------------------
--33-32-3-55-53-577-777-7------------33-32-3-55-53-5-----------------------------------
---------------------------------------------------------------------------------------
ghettoblaster
megatron
SECOND PRE-VERSE
---------------------------------------------------------------------------------------
---------------------------------------------------------------------------------------
---------------------------------------------------------------------------------------
--99-999-999-91212-1299-999-999-91212-1277-777-777-71212-12777999777------------------
--77-777-777-71010-1077-777-777-71010-1055-555-555-51010-10777999101010---101010999---
---------------------------------------------------------------------------------------
kill
SECOND VERSE PART 1
--------------------------------------------------------------------------------------
--------------------------------------------------------------------------------------
--------------------------------------------------------------------------------------
--99-999-999-91212-1299-999-999-91212-1277-777-777-71212-1299-999-999-91212-12--------
--77-777-777-71010-1077-777-777-71010-1055-555-555-51010-1077-777-777-71010-10--------
firepower final war heading for the
infernal reign
SECOND VERSE PART 2
---------------------------------------------------------------------------------------
---------------------------------------------------------------------------------------
---------------------------------------------------------------------------------------
--99-999-999-91212-1299-999-999-91212-1277-777-777-71212-1299-999-999-99~~~~~~~--------
--77-777-777-71010-1077-777-777-71010-1055-555-555-51010-1077-777-777-77~~~~~~~--------
---------------------------------------------------------------------------------------
raining blood mushroom clouds rats insect vomit
and agony
SECOND CHORUS
------------------------------------------------------------------------
------------------------------------------------------------------------
------------------------------------------------------------------------
--55-54-5-77-75-799-999-999977755544455-54-5-77-75-7-4~~~(4)~1212-12----
--33-32-3-55-53-577-777-7------------33-32-3-55-53-5-2~~~(2)~1010-10----
------------------------------------------------------------------------
ghettoblaster
nervegas
kill
BRIDGE (I'm completely at a loss here, it's certainly something else)
----------------------------------------------------------------------------
----------------------------------------------------------------------------
----------------------------------------_-----------------------------------
--999999997999999977777755577744444444444499999999799999995555555544444444--
--7777777757777777------------------------77777777577777773333333322222222--
----------------------------------------------------------------------------
kill fucking kill kill fucking kill
make them fucking die no mercy for scum
-------------------------------------------------------------------------------
-------------------------------------------------------------------------------
------------------_T__T__T__T__T__T__T__T_-------------------------------------
--999999997999999977777755577744444444444499999999799999995555555544444444-----
--7777777757777777------------------------77777777577777773333333322222222-----
-------------------------------------------------------------------------------
kill fucking kill kill fucking kill
make them fucking die no mercy for scum
THIRD PRE-VERSE
----------------------------------------------------------------------------------
----------------------------------------------------------------------------------
----------------------------------------------------------------------------------
--99-999-999-91212-1299-999-999-91212-1277-777-777-71212------777999777-----------
--77-777-777-71010-1077-777-777-71010-1055-555-555-51010-10777999101010101010999--
----------------------------------------------------------------------------------
uh
THIRD VERSE PART 1
-------------------------------------------------------------------------------
-------------------------------------------------------------------------------
-------------------------------------------------------------------------------
--99-999-999-91212-1299-999-999-91212-1277-777-777-71212-1299-999-999-91212-12-
--77-777-777-71010-1077-777-777-71010-1055-555-555-51010-1077-777-777-71010-10-
-------------------------------------------------------------------------------
overrule with terror as history turns
and pain the new page
THIRD VERSE PART 2
---------------------------------------------------------------------------------
---------------------------------------------------------------------------------
---------------------------------------------------------------------------------
--99-999-999-91212-1299-999-999-91212-1277-777-777-71212-1299-999-999-99~~~~~~~--
--77-777-777-71010-1077-777-777-71010-1055-555-555-51010-1077-777-777-77~~~~~~~--
---------------------------------------------------------------------------------
666 the year of hate the year scum will
be blown away
THIRD CHORUS ENDING
---------------------------------------------------------------------------------------
---------------------------------------------------------------------------------------
---------------------------------------------------------------------------------------
--55-54-5-77-75-799-999-999977755544455-54-5-77-75-7-4~~~(4)~12-12-12-9~~~~~~~~~~------
--33-32-3-55-53-577-777-7------------33-32-3-55-53-5-2~~~(2)~10-10-10-7~~~~~~~~~~------
---------------------------------------------------------------------------------------
ghettoblaster
apocalypse
kill
This tab sucks!!! There is some weird parts that donґt go right.
But thanks anyway for M. Kallio, who send this to me.


Ваше мнение



Капча