Es ist nicht 100% richtig aber man нцrт den Unterschied kaum heraus!!
Intro:
E----------------------------------------------------------------|
B----------------------------------------------------------------|
G---0------3---6---3---0-----------------------------------------|
D---0------3---6---3---0-----------------------------------------|
A---2------1---4---1---2-----------------------------------------|
E----------------------------------------------------------------|
Verse:
E-----------------------------------!-----------------------------|
B-----------------------------------!-----------------------------|
G------------------3---6---3--------!-----------------------------|
D---2--------------3---6---3---2----!-----------------------------|
A---00000000000----1---4---1---0----!-44444111114444411111--------|
E-----------------------------------!-----------------------------|
P.M.................
Chorus:
E----------------------------------------------------------------|
B----------------------------------------------------------------|
G---1010101010-5-10-9-55555-5/77-7-5/77-7-5/77--9-10-9-1---------|
D---1010101010-5-10-9-55555-5/77-7-5/77-7-5/77--9-10-9-1---------|
A---8-8-8-8-8--3-8--7-33333-3/55-5-3/55-5-3/55--7-8--7-3---------|
E----------------------------------------------------------------|
Bridge:(Nachdem der Chorus 4x gespielt wurde!)
E-------------------|
B-------------------|
G-------------------|
D--222222--555555---|
A--000000--333333---|
E-------------------|
Viel SраЯ beim spielen!
please vote!!!!!!!!!!!!!!!




Ваше мнение



Капча