t. See http://www.olga.net/faq/ for more information. #
From: "jan Heide, van der"
Subject: i/ilse_de_lange/lonely_too.tab
Date: Fri, 23 Jul 1999 00:32:55 CEST
My first made tab. and i'm proud of it.
Ilse de Lange
Lonely too
Capo 1
Intro:
C G F G C
e|------------------------------------------------------
B|--------1------------0-------------1-------------1----
G|------0---0--------0---0---------2---0---------0------
D|----2-------2----0-------0-----3-------0-----2--------
A|--3----------------------------------------3----------
D|---------------3-------------1------------------------
Verse:
C G F G C
e|-----------------------------------------------------------------------
B|--------1------------0-------------1-------------0-------------1-------
G|------0---0--------0---0---------2---2---------0---0---------0---0-----
D|----2-------2----0-------0-----3-------3-----0-------0-----2-------2---
A|--3------------------------------------------------------3-----------3-
D|---------------3-------------1-------------3---------------------------
And for F G you play:
F G
e|--------------
B|--------1-----
G|------2---0---
D|---3-------0--
A|--------------
D|-1------------
Just follow the chords section and this will work out fine
have fun.
If u find anything wrong please mail me
[email protected]




Ваше мнение



Капча