Iggy Pop - 'Drink New Blood' from the album 'Beat Em Up'
Drop D - (tune the 7th fret of the bottom E string so it sounds exactly the same
as the open A string above it)
Main Riff
----------------------------------
----------------------------------
----------------------------------
-0-0-1-0-3-0-1-0--6-5-3-0---------
-0-0-1-0-3-0-1-0--6-5-3-0---------
-0-0-1-0-3-0-1-0--6-5-3-0---------
Pre-Chorus Riff
-----------------------------------------
-----------------------------------------
-----------------------------------------
--0---------2---------3---------10-------
--0---------2---------3---------10-------
--0---------2---------3---------10-------
Chorus Riff
----------------------------------------------
----------------------------------------------
----------------------------------------------
--15-14-12---15-14-12---15-14-12-10-8-10-7----
--15-14-12---15-14-12---15-14-12-10-8-10-7----
--15-14-12---15-14-12---15-14-12-10-8-10-7----
Have Fun




Ваше мнение



Капча