Insane Clown Posse, Tilt-A-Whirl.
Tabbed by Chris, [email protected]

Insane Clown Posse
Tilt-a-whirl
Chris, [email protected]

Verse(Repeat 4 times)

G----------------------------------------------------
D----------------------------------------------------
A------5----7-7-7-7-7-7-7----5----7-7-7-7-7-7-7-
E-----------------------------------------------------

2nd part of Verse (Repeat 4 times)

G-----------------------------------------------------
D-----------------------------------------------------
A-----------------------------------------------------
E----5---7-7-7-7-7-7-7------5----7-7-7-7-7-7-7----

Chorus (Repeat 2 times)

G------------------------------------------------------
D------------------------------------------------------
A--5----7-7-7-7-7-7-7--------------------------------
E-------------------------------------------------------

G-------------------------------------------------------
D------5-5-5-5-5-5-5-5--7-7-7-7-7-7-7-7------------
A-------------------------------------------------------
E--------------------------------------------------------

G--------------------------------------------------------
D--------------------------------------------------------
A-----5----7-7-7-7-7-7-7-----5----7-7-7-7-7-7-7-----
E--------------------------------------------------------

Song Structure:Verse 4*,2nd part of Verse 4*,Chorus 2*,Verse 4*,2nd
part of verse 4*,Chorus 2*,Verse 3*,Verse 4*,2nd part of Verse
4*,Chorus 2*,Verse 2*,Chorus 4*

Get out buy Bizzar and play this song all u JUGGLAOS!!!!





Ваше мнение



Капча