icp terrible
pat haefner, [email protected]
Insane Clown Posse 'Terrible'

Intro
|---------------------------------|
|--0-0-0-0-0-0------0-0-0-0-0-0---|
|---------------------------------|
|--2-2-2-2-2-2------2-2-2-2-2-2---|
|--2-2-2-2-2-2------2-2-2-2-2-2---|
|--0-0-0-0-0-0-5----0-0-0-0-0-0-3-|

Chorus
|----------------------------------|
|----------------------------------|
|----------------------------------|
|--5-5-5-5-8-8-8-8-7-7-7-7-7-5-5-5-|
|--5-5-5-5-8-8-8-8-7-7-7-7-7-5-5-5-|
|--3-3-3-3-6-6-6-6-5-5-5-5-5-3-3-3-|





Ваше мнение



Капча